Modest Mouse - Willful Suspension Of Disbelief Chords & Tabs

 

Willful Suspension Of Disbelief Chords & Tabs

Modest Mouse Chords & Tabs

Version: 1 Type: Tab 1 rating
1 star 2 stars 3 stars 4 stars 5 stars
comments

Willful Suspension Of Disbelief Tab

Modest Mouse: "Willful Suspension of Disbelief"
Tabbed by Alan A. 



INTRO (0:08) - play 10x
E------------------------------------------------------|
B-----9--------------9---------------------------------|
G--------9-8-6----------9-8-11-8h9---------------------|
D-------------(6)--------------------------------------|
A---------------7--------------------------------------|
E------------------------------------------------------|


Riff (1:20)
E------------------------------------------------------
B------------------------------------------------------
G------6~---6~--6-6-4h6-8-6p4--------------------------
D------------------------------------------------------
A------------------------------------------------------
E------------------------------------------------------


E------------------------------------------------------
B------------------------------------------------------
G------6~--6-6-4h6-8-6p4-------------------------------
D------------------------------------------------------
A------------------------------------------------------
E------------------------------------------------------

[ Tab from: http://www.guitartabs.cc/tabs/m/modest_mouse/willful_suspension_of_disbelief_tab.html ]
E------------------------------------------------------
B------------------------------------------------------
G------6~--6-6-4h6-8-6p4-------------------------------
D------------------------------------------------------
A------------------------------------------------------
E------------------------------------------------------


E------------------------------------------------------
B------------------------------------------------------
G------6~---6~--6-6-4h6-8-6p4---6-6-4p3-4p3-3----------
D------------------------------------------------------
A------------------------------------------------------
E------------------------------------------------------


E------------------------------------------------------
B------------------------------------------------------
G------6-6-4h6-8-6p4---6-6-4p3-4-3h4-------------------
D------------------------------------------------------
A------------------------------------------------------
E------------------------------------------------------


E------------------------------------------------------
B------------------------------------------------------
G------6~--6-6-4h6-8-6p4---6-6-4p3-4-3----6~---6~------
D------------------------------------------------------
A------------------------------------------------------
E------------------------------------------------------


OUTRO (2:28) - play 5x
E------------------------------------------------------|
B-----9--------------9---------------------------------|
G--------9-8-6----------9-8-11-8h9---------------------|
D------------------------------------------------------|
A--------------7---------------------------------------|
E------------------------------------------------------|

Comments