Modest Mouse - Wild Pack Of Family Dogs Chords & Tabs

 

Wild Pack Of Family Dogs Chords & Tabs

Modest Mouse Chords & Tabs

Version: 3 Type: Tab 0 ratings
1 star 2 stars 3 stars 4 stars 5 stars
comments

Wild Pack Of Family Dogs Tab

   
-------------------------------------------------------------------------------
        wild pack of family dogs - modest mouse
-------------------------------------------------------------------------------
Tabbed by:spence
Email:delajeep@hotmail.com

Tuning:standard tuning
	
	This whole song is played off of a G Major.  It's best to do in the
  barre position as shown below.....
e|--------------------------------------------------------------------------|
B|--------------------------------------------------------------------------|
G|-5-5-4-0---4---5-5-4-5-5/7-5-4--------------------------------------------|
D|-5-5-5-5-5-5---5-5-5-5-5---5--5-------------------------------------------|
A|---------5-5------------------5-------------------------------------------|
E|--------------------------------------------------------------------------|
[ Tab from: http://www.guitartabs.cc/tabs/m/modest_mouse/wild_pack_of_family_dogs_tab_ver_3.html ]
  	Or you could do a little slight variation like this....notice it is
  following the shape of a G in the barre position with the root at the third
  fret.

e|--------------------------------------------------------------------------|
B|------------------------3-------------------------------------------------|
G|-5-5-4-0---4---5-5-4-5-5-5-4----------------------------------------------|
D|-5-5-5-5-5-5---5-5-5-5-5---5--5-------------------------------------------|
A|---------5-5------------------5-------------------------------------------|
E|--------------------------------------------------------------------------|
	I looked at the other tabs submitted and found one of them to be correct,
notewise that is, but as far as the recorded version on "Moon over Antartica", you can
definitely hear the barre position being played.  As far as the tab showing that it is
a C5 with the root being moved, you are wrong.



| /  slide up
| \  slide down
| h  hammer-on
| p  pull-off
| ~  vibrato
| +  harmonic
| x  Mute note
===============================================================================
Comments