Modest Mouse - Whenever You Breathe Out I Breathe In Chords & Tabs

 

Whenever You Breathe Out I Breathe In Chords & Tabs

Modest Mouse Chords & Tabs

Version: 1 Type: Tab 0 ratings
1 star 2 stars 3 stars 4 stars 5 stars
comments

Whenever You Breathe Out I Breathe In Tab

   
----------------------------------------------------------------------------
Whenever You Breathe Out, I Breathe in (Positive Negative) - Modest Mouse
----------------------------------------------------------------------------
Tabbed by: Built to spill
Email:builtospill1234@yahoo.com

Tuning:sandard

1

e-------------------------------------------------------------------|
B------------0-0-0-0-0-0-0-0--0-3-3-0-0-0---------------------------|
G------------0-0-0-0-0-0-0-0--0-0-0-0-0-0---------------------------|
D-5----------0-0-0-0-0-0-0-2--2-2-2-0-0-0-5-------------------------|
A----3p2-----2-2-2-2-2-2-2-2--2-2-2-2-2-0----3p2--------------------|
E--------0---3-3-3-3-3-3-3-3--3-3-3-3-3-0--------0------------------|
  hey,    haven't seen you around in a while

repeat however many times then,

2

e-------------------------------------------------------------------|
B-------------------------------------------------------------------|
G-------------------------------------------------------------------|
D--------------------5/7-5------------------------------------------|
A--2-2/--9--9\-4-4\3------------------------------------------------|
E-3-3-/10-10-\5-5---------------------------------------------------|

repeat some amount of times then,

3

e-------------------------------------------------------------------|
B-3-3-3--10-10-10--5-5-5--------------------------------------------|
G-0-0-0--0--0--0---0-0-0--5-5-5--7-7-7------------------------------|
D-0-0-0--0--0--0---0-0-0--5-5-5--7-7-7------------------------------|
A-2-2-2--9--9--9---4-4-4--3-3-3--5-5-5------------------------------|
E-3-3-3--10-10-10--5-5-5--------------------------------------------|

repeat numerous times then,

4
[ Tab from: http://www.guitartabs.cc/tabs/m/modest_mouse/whenever_you_breathe_out_i_breathe_in_tab.html ]
e------------------------------------------------|
B------------------------------------------------|
G------------------------------------------------|
D-9-7-9-7-5-7-5-7-12-10-12-10-9h10-9h10-9--------|
A----------------------------------------12-10-9-|
E------------------------------------------------|

e------------------------------------------------|
B------------------------------------------------|
G------------------------------------------------|
D-9-7-9-7-5-7-5-7------------5-------------------|
A----------------3-3-3p2--3----------------------|
E------------------------------------------------|

e------------------------------------------------|
B------------------------------------------------|
G-----------------------------10--10-10--10-10---|
D-9-7-9-7-5-7-5-7-12-10-12-10---12-----12-----12-|
A------------------------------------------------|
E------------------------------------------------|

e------------------------------------------------|
B------------------------------------------------|
G------------------------------------------------|
D-9-7-9-7-5-7-5-7------------5-------------------|
A----------------3-3-3p2--3----------------------|
E------------------------------------------------|

then do riff 3 then 4 then 3 again and
end it with riff 2.

| /  slide up
| \  slide down
| h  hammer-on
| p  pull-off
| ~  vibrato
| +  harmonic
| x  Mute note
============================================================================

damn, that took me forever to tab, i dont even know why i bothered, i guess im bored. 
a good song, its easy to play, i learned it in like 2 minutes by ear, have fun, isaac 
is a genius, modest mouse rocks, im out.

love from
   a person who go's by the name of Built to spill on this web site.
Comments