Modest Mouse - The Moon And Antartica Chords & Tabs

 

The Moon And Antartica Chords & Tabs

Modest Mouse Chords & Tabs

Version: 1 Type: Tab 0 ratings
1 star 2 stars 3 stars 4 stars 5 stars
comments

The Moon And Antartica Tab

   
tabbed by: CMM
email: colin_michael_muppet@hotmail.com

3rd Planet
Gravity Rides Everything
Dark Center of the Universe
Perfect Disguise
Tiny Cities Made of Ashes
A Different City
The Cold Part
Alone Down There
The Stars are Projectors
Wild Pack of Family Dogs
Paper Thin Walls
I Came as Rat
Lives
Life like Weeds
What People are Made of

I started this tab several months ago, got sick of making it and quit. However,
I saw Modest Mouse live a few nights ago and was again inspired to continue with
this and see it through. Everything minus the Tiny Cities slide guitar outro should
be here. Maybe that part will come later.


---------------------------------Third Planet--------------------------------

(Intro)
e|--------------------------------------------------|
B|--------------------------------------------------|
G|--------------------------------------------------|
D|-9----12-----9----12-----9----12-----9h10p9h10p9--|
A|---10----10----10----10----10----10---------------|
E|--------------------------------------------------|

(Intro variation)
e|---------------------------------------------------------|
B|---------------------------------------------------------|
G|---------------------------------------------------12+---|
D|-9----9h10-10p9-9----9h10-10p9-9----9h10-10p9-9----------|
A|---10-------------10-------------10-------------10-------|
E|---------------------------------------------------------|

("Verse")
e|-------------------------------------------------------------|
B|--10-10-10-10--10-10-10-10-10--10--8-8-8-8--8--8-8-8-8--8----|
G|---x--x--x--x---x--0--0--0--0---0--0-0-0-0--0--0-0-0-0--0----|
D|---9--9--9--9---9--x--x--x--x---x--x-x-x-x--x--x-x-x-x--x----|
A|--10-10-10-10--10--9--9--9--9---9--7-7-7-7--7--7-7-7-7--7----|
E|------------------10-10-10-10--10--8-8-8-8--8--8-8-8-8--8----|

("Chorus")
e|----------------------------------------------------|
B|----------------------------------------------------|
G|------12--------------------------------------------|
D|----9----9--------------------------------9/10\9----|
A|-10------------9h10p9--------7--9--7----7-----------|
E|------------10--------10\7-7---------7--------------|

(After first "chorus")
e|--------------------------------------------------|
B|------10--10--10-10-10--10-------8--8--8-8-8--8---|
G|--x----x---x---x--x--x---x-------0--0--0-0-0--0---|
D|--9--------9---9--9--9---9----x--x--x--x-x-x--x---|
A|-10-------10--10-10-10--10----7-----7--7-7-7--7---|
E|------------------------------8-----8--8-8-8--8---|


--------------------------Gravity Rides Everything---------------------------

(Intro) (Backwards harmonics)
e|-12+b---------------12+b------------------------------------------------|
B|----------------------------------------12+b---------------12+b---------|
G|------------------------------------------------------------------------|
D|------------------------------------------------------------------------|
A|------------------------------------------------------------------------|
E|------------------------------------------------------------------------|

(Acoustic Guitar chords)
e|-0---0--|
B|-0---0--|
G|-2---1--|
D|-2---2--|
A|-0---2--|
E|-----0--|
 Asus2 Emaj

(electric guitar part)
e|-------------------------------------------------------------------------|
B|-------------------------------------------------------------------------|
G|-------------------------------------------------------------------------|
D|-----6-7--9--7--6-------6-7--9--7--6---------------6-----------------6---|
A|-7-7----------------7-7---------------------6-7-9-----7-------6-7-9-----7|
E|----------------------------------------7-7---------------7-7------------|

(Acoustic guitar)
e|---------------------------------------------------------------|
B|---------------------------------------------------------------|
G|---6-9-6----------------6-9-6----------------------------------|
D|-7-------6h7-9-7-6----7-------6h7-9-7-6------6-9-6-------------|
A|-------------------------------------------7-------6h7-9-7-6---|
E|---------------------------------------------------------------|

e|---------------------|
B|---------------------|
G|---------------------|
D|---6-9-6-------------|
A|-7-------6h7-9-7-6---|
E|---------------------|

---------------------------Dark Center of the Universe-----------------------

(Intro)
e|---0---0---0---0---0---0---0---0---0---0---0---0-------2p0-2p0-2p0-2p0--|
B|-5---5---5---5---3---3---3---3---2---2---2---2---0--0--0---0---0---0----|
G|------------------------------------------------------------------------|
D|------------------------------------------------------------------------|
A|------------------------------------------------------------------------|
E|------------------------------------------------------------------------|


e|-2p0-2p0------7--------7----------5--------5----------4--------4---------|
B|-0---0----5-5---5--5-5---5\3--3-3---3--3-3---3\2--2-2---2--2-2---2\0--0-0|
G|-------------------------------------------------------------------------|
D|-------------------------------------------------------------------------|
A|-------------------------------------------------------------------------|
E|-------------------------------------------------------------------------|

e|-2p0-2p0-2p0-2p0-2p0-2p0---|
B|-0---0---0---0---0---0-----|
G|---------------------------|
D|---------------------------|
A|---------------------------|
E|---------------------------|

(Verse)
e|-----0h7p0--------0h7p0--------0h5p0--------0h5p0--------0h4p0----------|
B|-5-5-------5--5-5-------5--3-3-------3--3-3-------3--2-2-------2--2-2---|
G|------------------------------------------------------------------------|
D|------------------------------------------------------------------------|
A|------------------------------------------------------------------------|
E|------------------------------------------------------------------------|

e|-0h4p0-------------------------------|
B|-------2--0--0--0--0--x-x-0-x-x-0----|
G|-------------------------------------|
D|-------------------------------------|
A|-------------------------------------|
E|-------------------------------------|

(Verse pt.2)
e|-x--x--x--x-x-x-x--x--x--|
B|-x--x--x--x-x-x-x--x--x--|
G|-x--x--x--x-x-x-x--x--x--|
D|-x--x--x--x-x-x-x--x--x--|
A|-x--x--x--x-x-x-x--x--x--|
E|-x--x--x--x-x-x-x--x--x--|
No definite pattern.

(Outro)
e|-----------------------------------------------------------------------|
B|-11-11-11-11-11-11-11-11-12-12-12-12-12-12-12-12-----------------------|
G|-----------------------------------------------------------------------|
D|-----------------------------------------------------------------------|
A|-----------------------------------------------------------------------|
E|-----------------------------------------------------------------------|

e|-------------------------------------------------------------------------|
B|-12-12-12-12-11-11-11-11-10-10-10-10-10-10-10-10-11-11-11-11-11-11-11-11-|
G|-------------------------------------------------------------------------|
D|-------------------------------------------------------------------------|
A|-------------------------------------------------------------------------|
E|-------------------------------------------------------------------------|

e|-------------------------------------------------------------------------|
B|-12-12-12-12-12-12-12-12-12-12-12-12-12-12-12-12-11-11-11-11-11-11-11-11-|
G|-------------------------------------------------------------------------|
D|-------------------------------------------------------------------------|
A|-------------------------------------------------------------------------|
E|-------------------------------------------------------------------------|

e|-------------------------10-10-10-10-10-10-10-10-------------------------|
B|-12-12-12-12-12-12-12-12-------------------------12-12-12-12-11-11-11-11-|
G|-------------------------------------------------------------------------|
D|-------------------------------------------------------------------------|
A|-------------------------------------------------------------------------|
E|-------------------------------------------------------------------------|

e|-------------------------------------------------------------------------|
B|-10-10-10-10-10-10-10-10-11-11-11-11-11-11-11-11-8-8-8-8-8-8-8-8-11-11-11|
G|-------------------------------------------------------------------------|
D|-------------------------------------------------------------------------|
A|-------------------------------------------------------------------------|
E|-------------------------------------------------------------------------|

e|--------------------10---------10--------10-------10-------10---------|
B|-11-12-12-12-12--12----12--10-----12--10----12-10----12-10----10--12--|
G|----------------------------------------------------------------------|
D|----------------------------------------------------------------------|
A|----------------------------------------------------------------------|
E|----------------------------------------------------------------------|

e|----10-------10-------10-------10-------10--------------------------|
B|-12----12-10----12-10----12-10----12-10----12--11-10---10/11-11/12--|
G|--------------------------------------------------------------------|
D|--------------------------------------------------------------------|
A|--------------------------------------------------------------------|
E|--------------------------------------------------------------------|

------------------------------Perfect Disguise-------------------------------

(Main riff)
e|-0-----0----------0-----0---------|
B|---1h2---2----------1h2---2-------|
G|-----------4\2-2------------4\2-2-|
D|----------------------------------|
A|----------------------------------|
E|----------------------------------|

(2nd part/variation #1)
e|--------------------------------------------|
B|-----2-0----0---2-0-------------------------|
G|----------2---------2-2---4\2---4-2---4---2-|
D|--------------------------------------------|
A|---2----------------------------------------|
E|--------------------------------------------|

(2nd Part/Variation #2)
e|----------------------------------------|
B|-----2-0----0---2-0---------------------|
G|----------2---------2-2---4\2-------4-2-|
D|----------------------------------------|
A|---2------------------------------------|
E|----------------------------------------|

(2nd Part/Variation #3)
e|---------------------------------------|
B|-----2-0----0---2-0--------------------|
G|----------2---------2-2---4\2----------|
D|---------------------------------------|
A|---2-----------------------------------|
E|---------------------------------------|

(Verse Chords)
e|-2-----0--|
B|-2-----0--|
G|-4-----2--|
D|-4-----2--|
A|-2-----0--|
E|----------|
Bsus2   Asus2

------------------------Tiny Cities Made of Ashes----------------------------

(Harmonics)
e|-------|
B|-12+b--|
G|-12+b--|
D|-------|
A|-------|
E|-------|

e|-------|
B|-------|
G|--5+b--|
D|-------|
A|-------|
E|-------|

e|-------|
B|-12+b--|
G|-------|
D|-------|
A|-------|
E|-------|


(Played live at chorus)
e|-------------------------------------------------|
B|-------------------------------------------------|
G|-9--9--9--9-9--9--9-10----9--9--9--9-9--9--9--7--|
D|-x--x--x--x-x--x--x--x----x--x--x--x-x--x--x--x--|
A|-7--7--7--7-7--7--7--8----7--7--7--7-7--7--7--5--|
E|-------------------------------------------------|

(Outro)
e|-11--9--11--9--7--9--7--9-----7--9--7--9/11--9--7--9--|
B|---------------------------9--------------------------|
G|------------------------------------------------------|
D|------------------------------------------------------|
A|------------------------------------------------------|
E|------------------------------------------------------|

(Outro ending 1)
e|-11--9--11--9--7--9--7--9------------------7--|
B|---------------------------9----7-----9-------|
G|----------------------------------------------|
D|----------------------------------------------|
A|----------------------------------------------|
E|----------------------------------------------|

(Outro ending 2)
e|-11--9--11--9--7--9--7--9-------------------|
B|---------------------------9--7--9/11--9~---|
G|--------------------------------------------|
D|--------------------------------------------|
A|--------------------------------------------|
E|--------------------------------------------|

(Outro Harmonics)
e|-------|
B|-------|
G|-------|
D|--12+b-|
A|-------|
E|-------|

e|-------|
B|--5+b--|
G|-------|
D|-------|
A|-------|
E|-------|


-------------------------------A Different City------------------------------

(Intro/Main riff)
e|-----------------------------------------------------------------------|
B|-----------------------------------------------------------------------|
G|----------------11b13r11--11-11-11-------------------------------------|
D|----------8--9----------------------9-9-8-8------------8--9--11b13r11--|
A|11--11-11------------------------------------11--11-11-----------------|
E|-----------------------------------------------------------------------|

e|--------------------|
B|--------------------|
G|--------------------|
D|11-11-11---9-9-8-8--|
A|--------------------|
E|--------------------|

(Verse)
e|----------------------------------------|
B|----------------------------------------|
G|-13---------11-------11--------9--------|
D|-11---------11--------9--------9--------|
A|----------------------------------------|
E|----------------------------------------|
   C#5        F#5      B5        E5

(Chorus)
e|-------------------------------------------------------------------------|
B|-------------------------------------------------------------------------|
G|-13--13--13-13--13-x--9--9--9/11--9\8--8--8--8/9--8\6--6\4--4\3--3/4--4--|
D|-13--13--13-13--13-x--9--9--9/11--9\8--8--8--8/9--8\6--6\4--4\3--3/4--4--|
A|-11--11--11-11--11-x--7--7--7/9---7\6--6--6--6/7--6\4--4\2--2\1--1/2--2--|
E|-------------------------------------------------------------------------|
   G#5                  E5     F#5    D#5             C#5  B5   A#5

("solo")
e|----------------------------------------------------------------------|
B|----------------------------------------------------------------------|
G|-8--8-8--11--8--9--8--11--8--9--8------8-8-----8--8--8-8-8--9--9-9-11-|
D|-----------------------------------11-------11------------------------|
A|----------------------------------------------------------------------|
E|----------------------------------------------------------------------|

e|----------|
B|----------|
G|-11--11---|
D|----------|
A|----------|
E|----------|


-------------------------------The Cold Part---------------------------------

(Intro/Main riff)
e|------------------------------------|
B|------------------------------------|
G|------------------------------------|
D|----11\9-----9\------2-2/5--5-4-----|
A|-----------9-------2------------5---|
E|-7-------7-------0------------------|

(Appearing Riff)
e|----------------------------------------------------|
B|----------------------------------------------------|
G|----------------------------------------------------|
D|4-4-4-4-4-4-4-4-4-/7--5--4--5--4-----------4h5p4----|
A|----------------------------------7--5--7-----------|
E|----------------------------------------------------|

(Harmonics)
e|--------------------------------------------------------------|
B|-5+-5+-5+-5+--7+-7+-7+-7+-----------------5+-5+---------------|
G|--------------------------------------------------------------|
D|-----------------------------5+-5+-5+-5+-----------5+-5+------|
A|--------------------------------------------------------------|
E|--------------------------------------------------------------|

(Harmonics)
e|--------------------------------------|
B|-5+b----------------------------------|
G|-----5+b------------------------------|
D|----------5+b----5+b----5+b-----5+b---|
A|--------------------------------------|
E|--------------------------------------|


(Part that comes up frequently)
e|----------------------------------------------------|
B|--------------------------------------\10-----------|
G|-10h11--10h11---11---10h11--10h11--11-----11-10-11--|
D|----------------------------------------------------|
A|----------------------------------------------------|
E|----------------------------------------------------|

(Interlude)
e|--------------------------------------------------------------------|
B|--------------------------------------------------------------------|
G|--------------------------------------------------------------------|
D|-7-4-5-----7-5-4--------4-----4h5p4----4-5-7--7-5-4--------4-4h5p4--|
A|------------------5-5h7---------------------------------------------|
E|--------------------------------------------------------------------|
                                         PM...........


----------------------------Alone Down There----------------------------------

(Intro)
e|------------------------------------|
B|------------------------------------|
G|------------------------------------|
D|------------------------------------|
A|------------------------------------|
E|-7-7-7-7-7-7-7-7-7-7-7-7-7-7-7-7-7--|

(Ending 1)
e|------|
B|-12+b-|
G|------|
D|------|
A|------|
E|------|

(Ending 2)
e|--------|
B|-10-8---|
G|--------|
D|--------|
A|--------|
E|--------|

(Prechorus/Chorus/Interlude)
e|--------------|
B|--------------|
G|-4------------|
D|-4--4--5--7---|
A|-2--4--5--7---|
E|----2--3--5---|
  B5 F#5 G5 A5

(Guitar over Chorus)
e|---------------------------------------------|
B|---------------------------------------------|
G|---------------------------------------------|
D|-9--9\4--4--4--4/5--5-7--7-7--7-7\5-5-5\4-4--|
A|-x--x-x--x--x--x-x--x-x--x-x--x-x-x-x-x-x-x--|
E|-7--7\2--2--2--2/3--3-5--5-5--5-5\3-3-3\2-2--|

(Outro Guitar 1)
e|-------------------------------------------------------------------------|
B|-------------------------------------------------------------------------|
G|-7--7-7-7-7-11-11-11-11-11--7--7-7-7-7--6--6-6-6-6--4--4-4-4-4-----------|
D|-x--x-x-x-x--x--x--x--x--x--x--x-x-x-x--x--x-x-x-x--x--x-x-x-x--5--5-5-5-|
A|-5--5-5-5-5--9--9--9--9--9--5--5-5-5-5--4--4-4-4-4--2--2-2-2-2--x--x-x-x-|
E|----------------------------------------------------------------3--3-3-3-|
[ Tab from: http://www.guitartabs.cc/tabs/m/modest_mouse/the_moon_and_antartica_tab.html ]
e|-------------------------------------------------------------------------|
B|-------------------------------------------------------------------------|
G|----------------6--6-6-6-6----7--7-7-7-7-11-11-11-11-11--7--7-7-7-7--6--6|
D|-5--7--7-7-7-7--x--x-x-x-x----x--x-x-x-x--x--x--x--x--x--x--x-x-x-x--x--x|
A|-x--x--x-x-x-x--4--4-4-4-4----5--5-5-5-5--9--9--9--9--9--5--5-5-5-5--4--4|
E|-3--5--5-5-5-5-----------------------------------------------------------|

e|-------------------------------------------------------------------------|
B|-------------------------------------------------------------------------|
G|-6-6-6--4--4-4-4-4--------------------------6--6-6-6-6----4--------4-----|
D|-x-x-x--x--x-x-x-x--5--5-5-5-5--7--7-7-7-7--x--x-x-x-x----x--------x-----|
A|-4-4-4--2--2-2-2-2--x--x-x-x-x--x--x-x-x-x--4--4-4-4-4----2--------2-----|
E|--------------------3--3-3-3-3--5--5-5-5-5-------------------------------|

e|-------------------------------------------------------------------------|
B|-------------------------------------------------------------------------|
G|-------------------------------------6--------6--------4--------4--------|
D|-4--------4--------7--------7--------x--------x--------x--------x--------|
A|-x--------x--------x--------x--------4--------4--------2--------2--------|
E|-2--------2--------5--------5--------------------------------------------|

e|-------------------------------------------------|
B|-------------------------------------------------|
G|-------------------------------------------------|
D|4--------4--------5--------5---------7--------7--|
A|x--------x--------x--------x---------x--------x--|
E|2--------2--------3--------3---------5--------5--|

(Outro Guitar 2)
e|----------------------------------------------------------------|
B|----------------------------------------------------------------|
G|-4--4-4-4-4--4--4-4-4-4--------------4--4-4-4-4---7--7-7-7-7----|
D|-x--x-x-x-x--x--x-x-x-x--4--4-4-4-4--x--x-x-x-x---x--x-x-x-x--7-|
A|-2--2-2-2-2--2--2-2-2-2--x--x-x-x-x--2--2-2-2-2---5--5-5-5-5--x-|
E|-------------------------2--2-2-2-2---------------------------5-|

------------------------The Stars are Projectors------------------------------

(Intro)
e|--------------------------------------------------|
B|--------------------------------------------------|
G|--------------------------------------------------|
D|--------------------------------------------------|
A|---9-10p9h10p9-7---------9-10p9h10p9-7------------|
E|-7----------------7---7-----------------7\3--3--7-|

(Following part)
e|----------------------------------------|
B|----------------------------------------|
G|---11-12-------------11-12--------------|
D|-9-11-12-12-12-----9-11-12-12-12----5---|
A|-9--9-10-12-12-----9--9-10-12-12----5---|
E|-7-------10-10-----7-------10-10----3---|
NOTE: Not strummed played as written.

(Following part)
e|-----------------------------------------------------|
B|-----------------------------------------------------|
G|-----------------------------------------------------|
D|-----------10-----9-----------------10----9----9-----|
A|--------------10----10-----------------10---10---10--|
E|-10/12-12-----------------10/12-12-------------------|

(Chords Used)
e|-------|
B|-------|
G|-5--4--|
D|-5--4--|
A|-3--2--|
E|-------|
   C5 B5 

(Guitar 1)
e|--------------------------------------|
B|--------------------------------------|
G|---------------------7----------------|
D|--9-----5/7-7--5/7-9------------------|
A|-----9--------------------------------|
E|--------------------------------------|

(Guitar 2)
e|-------------------------------|
B|-------------------------------|
G|-------------------------------|
D|--9-------------9--------------|
A|-----9--10--12-----9--10--12---|
E|-------------------------------|

(Repeated riff)
e|----------------------|
B|----------------------|
G|----------------------|
D|-9-9------------------|
A|-----9-9-10-10-12-12--|
E|----------------------|

(Variation)
e|--------------------------------------------|
B|--------------------------------------------|
G|---------------------------12-12-11-11-9-9--|
D|-9-9-----------------12-12------------------|
A|-----9-9-10-10-12-12------------------------|
E|--------------------------------------------|

(Small background fill)
e|--------------------|
B|--------------------|
G|--9~--7~------------|
D|----------9~--------|
A|--------------10~---|
E|--------------------|

(Following part)
e|------------------------------|
B|------------------------------|
G|-------------------12--11--9--|
D|-9-------------12-------------|
A|----9--10--12-----------------|
E|------------------------------|

(Outro Guitar One)
e|-------------------------------------------------------------------------|
B|-------------------------------------------------------------------------|
G|-----------12-9---------------------12-9---------------------12----------|
D|--9-10-12-------12-9-12----9-10-12-------12-9-12----9-10-12-----12-9-12--|
A|-------------------------------------------------------------------------|
E|-------------------------------------------------------------------------|

e|--------------------------|
B|--------------------------|
G|--------------------------|
D|--9-10-12-10--9-10-12-10--|
A|--------------------------|
E|--------------------------|

(Outro Guitar Two)
e|----------------|
B|----------------|
G|-12~-------7~---|
D|--x--------x----|
A|-10~-------5~---|
E|----------------|

(Outro Acoustic)(For one guitar. Not two overlapped.)
e|-------------------------------------------------------------------------|
B|---------12-----------------12-------------12--------------12--------12--|
G|-12--12-----12-----------12-------------------12--------12----12--12-----|
D|-------------------------------------------------------------------------|
A|-10------------10--9--9------------10--10--------10--10------------------|
E|-------------------------------------------------------------------------|


----------------------Wild Pack of Family Dogs-------------------------------

(Whole thing)
e|------------------------------------------------|
B|------------------------------------------------|
G|--5-5--4--0------------5-5--4-5-5/7-5-4-0-------|
D|--5-5--5--0------5-----5-5--5-5-----------------|
A|--3-3--3------5--5-----3-3--3-------------------|
E|--------------3--3------------------------------|
    C5          G5

NOTE: The B (the 4) on top of the C5 chord must be played for this to sound completely
correct. 


---------------------------Paper Thin Walls----------------------------------

(Main part)
e|-------------------------------------------------------------------------|
B|------7-7-x-5-5--------------7-7-x-5-5-------------7----------7----------|
G|-----------------7-6-------------------7-6---------7----------7----------|
D|-7-7--------------------7-7-------------------7-7--7--x--7-7--7--x--7-7--|
A|----------------------------------------------5-5-----x--5-5-----x--5-5--|
E|-------------------------------------------------------------------------|

e|--------------------|
B|-7--x--7-7-7--7-----|
G|-7--x--7-7-7--7--6--|
D|-7--x--7-7-7--7--7--|
A|----x--5-5-5--5-----|
E|--------------------|

Note: To play the above part, one should position their fingers to make this A chord:
e|-x--|
B|-5--|
G|-6--|
D|-7--|
A|----|
E|----|
The rest is performed by using the free pinky finger to move from the b to the g string
fretting the 7th fret when necessary.

(After Verse)
e|---------------|
B|---------------|
G|-7/9-9--7/9-9--|
D|---------------|
A|---------------|
E|---------------|

(Chorus)
e|--------------------------------|
B|--------------------------------|
G|-9--------7--------4--------5---|
D|-9--------7--------4--------5---|
A|-7--------5--------2--------3---|
E|--------------------------------|
   E5       D5       B5       C5


---------------------------I Came as a Rat-----------------------------------

(1st Guitar Intro)
e|-------------------------------------------------------------------------|
B|-------------------------------------------------------------------------|
G|--------------5-----------------------------------5----------------------|
D|-----7------5---5------5--------3--------7------5---5------5--------3----|
A|---7---7--3----------5---5----3---3----7---7--3----------5---5----3---3--|
E|-5-----------------3--------1--------5-----------------3--------1--------|
  Pm...........   Pm...............................   Pm...................

(2nd Guitar Intro)
e|-------------------------------------------------------------------------|
B|-------------------------------------------------------------------------|
G|-7~---------------------------------7~-----------------------------------|
D|-x----------------------------------x------------------------------------|
A|-5~---------------------------------5~-----------------------------------|
E|-------------------------------------------------------------------------|

e|-------------------------------------------------------------------------|
B|-------------------------------------------------------------------------|
G|-7~------9~--------12~--9~-----7~----------------------------------------|
D|-x-------x----------x---x------x-----------------------------------------|
A|-5~------7~--------10~--7~-----5~----------------------------------------|
E|-------------------------------------------------------------------------|

(Verse) (played 4 times)
e|------------------------------------------------------|
B|------------------------------------------------------|
G|--------------5-5-x-x-x-x-----------------------------|
D|-7-7-x-x-x-x--5-5-x-x-x-x--5-5-x-x-x-x--3-3-x-x-x-x---|
A|-7-7-x-x-x-x--3-3-x-x-x-x--5-5-x-x-x-x--3-3-x-x-x-x---|
E|-5-5-x-x-x-x---------------3-3-x-x-x-x--1-1-x-x-x-x---|
   A5           C5           G5           F5

(Chorus)
e|------------------------------------------------------------|
B|-5-6-5-6----------------------------------------------------|
G|---------7--5\4--4-5-4-5------------------------------------|
D|-------------------------7--5\2-2----5----2-2-5-2-5-2-0-2---|
A|------------------------------------------------------------|
E|------------------------------------------------------------|

(2nd Guitar) (comes in second time through at the 5\2 slide)
e|---------------------3-------|
B|-5-6-5-6---------------------|
G|---------7--5\4--4-5---------|
D|-----------------------------|
A|-----------------------------|
E|-----------------------------|

(1st Guitar Jam) (General idea of what is played. Too many variations to tab)
e|--------------------------------|
B|--------------------------------|
G|-9--9-9-7-9--9--9--9-10-9-10-9--|
D|-x--x-x-x-x--x--x--x--x-x--x-x--|
A|-7--7-7-5-7--7--7--7--8-7--8-7--|
E|--------------------------------|

(2nd Guitar Jam)
e|-----------------------------|
B|---2-3-----------------------|
G|-4-----2---------------------|
D|---------4-0-2--2-5-2--------|
A|----------------------2~-----|
E|-----------------------------|

(3rd Guitar Jam)
e|-------------------------------------------------------------------------|
B|-------------------------------------------------------------------------|
G|-------------------------------------------------------------------------|
D|-------------------------------------------------------------------------|
A|--------------------7-7-7-7--7----7----------------------7-7-7-7--7-10-7-|
E|-7-7-7---10-10-10--------------10-----7-7-7---10-10-10-------------------|


----------------------------------Lives--------------------------------------

(Main Part)
e|-------------------------------------------------------|
B|-------------------------------------------------------|
G|-----------------2-2b3r2-------------------------------|
D|-------2-0-----4---------4--------2-0------------------|
A|---0-4-----4-2----------------0-4-----4-2-4-4/7-4-2-0--|
E|-2--------------------------2--------------------------|

(Small 2nd Guitar part)
e|--------------------------------|
B|--------------------------------|
G|-7--6--7--6--7-----7-6\4\2------|
D|----------------9---------------|
A|--------------------------------|
E|--------------------------------|

(Strumming Part)
e|-----------|
B|-----------|
G|------4----|
D|-4----4----|
A|-4----2----|
E|-2---------|
   F#5  B5

(2nd Half of Song)
e|-------------------------------------------------------------------------|
B|-15--15-15-15-15--12--12-12-12-12--15--15-15-15-15--12--10--8--3--3-3-3-3|
G|--0---0--0--0--0---0---0--0--0--0---0---0--0--0--0---0---0--0--0--0-0-0-0|
D|--x---x--x--x--x---x---x--x--x--x---x---x--x--x--x---x---x--x--x--x-x-x-x|
A|-15--15-15-15-15--12--12-12-12-12--15--15-15-15-15--12--10--7--3--3-3-3-3|
E|-------------------------------------------------------------------------|
             
e|-------------------------------------|
B|-3--3-3-3-3--5--5-5-5-5--3--3-3-3-3--|
G|-0--0-0-0-0--0--0-0-0-0--0--0-0-0-0--|
D|-x--x-x-x-x--x--x-x-x-x--x--x-x-x-x--|
A|-3--3-3-3-3--3--3-3-3-3--3--3-3-3-3--|
E|-------------------------------------|
         

(This works too if you using an acoustic and cant really reach fret 15...)
e|-10--10-10-10-10--7--7-7-7-7--10--10-10-10-10--7--7--7-------------------|
B|--8---8--8--8--8--8--8-8-8-8---8---8--8--8--8--8-10--8--3--3-3-3-3-------|
G|--0---0--0--0--0--0--0-0-0-0---0---0--0--0--0--0--0--0--0--0-0-0-0-etc.--|
D|--0---0--0--0--0--0--0-0-0-0---0---0--0--0--0--0--0--0--x--x-x-x-x-------|
A|--------------------------------------------------------3--3-3-3-3-------|
E|-------------------------------------------------------------------------|

(2nd part verse)
e|-------------------------------------------------------------------------|
B|-3--3-3-3-3--3--3-3-3-3--3--3-3-3-3--3--3-3-3-3--3--3-3-3-3--3--3-3-3-3--|
G|-0--0-0-0-0--0--0-0-0-0--0--0-0-0-0--0--0-0-0-0--0--0-0-0-0--0--0-0-0-0--|
D|-x--x-x-x-x--x--x-x-x-x--x--x-x-x-x--x--x-x-x-x--0--0-0-0-0--0--0-0-0-0--|
A|-3--3-3-3-3--3--3-3-3-3--2--2-2-2-2--2--2-2-2-2--x--x-x-x-x--x--x-x-x-x--|
E|-------------------------------------------------3--3-3-3-3--3--3-3-3-3--|

e|------------------------|
B|-3--3-3-3-3--3--3-3-----|
G|-0--0-0-0-0--0--0-0-----|
D|-0--0-0-0-0--0--0-0-----|
A|-x--x-x-x-x--x--x-x-----|
E|-2--2-2-2-2--2--2-2-2-3-|


------------------------------Life Like Weeds--------------------------------

(Intro/2nd verse)
e|------------------------------------|
B|------------------------------------|
G|-11-x-x-11-x-x-11-x-x-11-11-11-x-x--|
D|-11-x-x-11-x-x-11-x-x-11-11-11-x-x--|
A|------------------------------------|
E|------------------------------------|

(Alternated part #1)
e|----------------------------|
B|----------------------------|
G|----------------------------|
D|----------7-----------------|
A|-5--7--9-----9--7--5--5-7---|
E|--------------------------5-|

(Alternated part #2/Intro interlude pt.1)
e|---------------------------------|
B|---------------------------------|
G|---------------------------------|
D|-------7------------7------------|
A|-5-7-9---9-7-5-7--9---9-7-5-7----|
E|------------------------------5--|

(Intro interlude pt.2)
e|--------------------------------------|
B|--------------------------------------|
G|--7~----------------------------------|
D|-----9~--7~---------------------------|
A|---------------9~---7--5--7----9-7-5--|
E|--------------------------------------|

(Intro interlude pt.3)
e|--------------------------------------|
B|--------------------------------------|
G|-7-7----------------------------------|
D|-----9-9-7-7--------------------------|
A|-------------9-9-7-7-5-5----7-9-7-5---|
E|--------------------------------------|

(Intro interlude ending/second part of second part of song)
e|--------5------------------------5---------------|
B|-------------------------------------------------|
G|-7b8r7----7b8r7--7b8r7----7b8r7----7b8r7--7b8r7--|
D|-------------------------------------------------|
A|-------------------------------------------------|
E|-------------------------------------------------|

(Middle of song)
e|-------|
B|-------|
G|-14b---|
D|-14b---|
A|-12b---|
E|-------|
   A5
Note: Use a whammy to bend the shit of this chord)

("Chorus")
e|---------------------------|
B|-10~--8~--7~---------------|
G|--------------9~--7~-------|
D|---------------------------|
A|---------------------------|
E|---------------------------|

(Outro variation one)
e|--------------------------------------|
B|--------------------------------------|
G|--------------------------------------|
D|---4h5--5/7-5--5/7--5p4-5p4-----------|
A|-5--------------------------5---------|
E|--------------------------------------|

(Outro variation two)
e|-------------------------------|
B|-------------------------------|
G|---------------4h5-7p5-4-------|
D|---4h5--5/7-5------------5-----|
A|-5-----------------------------|
E|-------------------------------|

(Ending)
e|-0b--|
B|-0b--|
G|-0b--|
D|-0b--|
A|-0b--|
E|-0b--|

Note: I heard Isaac make a this sound live the other day and Im pretty sure he was just
bending open strings.

--------------------------What People are Made of----------------------------

Note:Presice number of strums not shown, only which chords played.

(Violent Strumming)
e|-------------------------------------------------------------------------|
B|-------------------------------------------------------------------------|
G|-4-4-4-4-4-4-4-4-4-4-4-4-4-4-4-4--16-16-16-16-16-16-16-16-16-16-16-16-16-|
D|-4-4-4-4-4-4-4-4-4-4-4-4-4-4-4-4---x--x--x--x--x--x--x--x--x--x--x--x--x-|
A|-2-2-2-2-2-2-2-2-2-2-2-2-2-2-2-2--14-14-14-14-14-14-14-14-14-14-14-14-14-|
E|-------------------------------------------------------------------------|
   B5

(Verse)
e|--------------------------------------------------------------|
B|--------------------------------------------------------------|
G|-4-x-4-x-4-x-4-x-4-x-4-x-4-x-4-x-x----------------------------|
D|-4-x-4-x-4-x-4-x-4-x-4-x-4-x-4-x-x-5--5--5-5--x--5--5--5-5-5--|
A|-2-x-2-x-2-x-2-x-2-x-2-x-2-x-2-x-x-5--5--5-5--x--5--5--5-5-5--|
E|-----------------------------------3--3--3-3--x--3--3--3-3-3--|
   B5                                G5

(Small chime by 2nd guitar during verse)
e|--------|
B|-8--10--|
G|--------|
D|--------|
A|--------|
E|--------|

(2nd Guitar during violent strumming)
e|-------------------------------------------------------------------|
B|-------------------------------------------------------------------|
G|-7--9--7--9----17--16--17--16--17--16--17--16~--------------19-----|
D|-x--x--x--x-----x---x---x---x---x---x---x---x---------------x------|
A|-5--7--5--7----15--14--15--14--15--14--15--14~--------------17-----|
E|-------------------------------------------------------------------|

(Guitar during interlude)
e|--------------|
B|--------------|
G|-4--7--4------|
D|-4--7--4--5---|
A|-2--5--2--5---|
E|----------3---|
   B5 D5 B5 G5

All comments, corrections and complaints to be send to Listed E-mail. (Uptop)

                                 The End
Comments