Modest Mouse - Talking Shit About A Pretty Sunset Chords & Tabs

 

Talking Shit About A Pretty Sunset Chords & Tabs

Modest Mouse Chords & Tabs

Version: 4 Type: Tab

Talking Shit About A Pretty Sunset Tab

   
-------------------------------------------------------------------------------
            TALKING SHIT ABOUT A PRETTY SUNSET - Modest Mouse
-------------------------------------------------------------------------------
Tabbed by: Tim Machroli
Email: jadedsaint111@yahoo.com

Tuning: Standard

Ok, folks, this is about as accurate as it gets. Listen to the recording and
feel free to improvise as you see fit. Enjoy!

Intro:

    E  G#  F#  E
e|----------------|
B|----------------|
G|--9--13--11--9--|
D|--9--13--11--9--|  x7
A|--7--11--9---7--|
E|----------------|

===============================================================================

Interlude:

e|---------------------------|
B|--12--9--12--9--12--10--9--|
G|--9-------9------9---------|
D|---------------------------|  x2
A|---------------------------|
E|---------------------------|


Part I:

e|--12---12--------------------+12+--+12+--+12+----|
B|----12---12--10--9--10p9-------------------------|
G|--------------------------9-------------------9--|
D|-------------------------------------------------| 
A|-------------------------------------------------|
E|-------------------------------------------------|

 REPEAT INTERLUDE: this time skip Part I and play Part II

Part II:

e|--12----12--------------------12------------|
B|-----12----12--10--9--10p9-------12--10p9---|
G|---------------------------9--------------9-|
D|--------------------------------------------|
A|--------------------------------------------|
E|--------------------------------------------|

 REPEAT INTRO: play 2 times then go to SOLO

===============================================================================

Solo:
    E  G#
e|---------------------------------------------------------------------------------|
B|---------------12------12------12----12--12--------12--12------------------------|
G|--9--13--13--13--13--13--13--13--13----13--13p11-11--11----11--11\---9-9h11-9h11-|
D|--9--13--------------------------------------------------13--13--\11-------------|
A|--7--11--------------------------------------------------------------------------|
E|---------------------------------------------------------------------------------|
[ Tab from: http://www.guitartabs.cc/tabs/m/modest_mouse/talking_shit_about_a_pretty_sunset_tab_ver_4.html ]
e|-----------------------------------------------|
B|----12--12--12--12-----------------------------|
G|--13--13--11--11----11--11\-9--9--9h11--9h11---|
D|------------------13--13--\-11-----------------| x5
A|-----------------------------------------------|
E|-----------------------------------------------|

                        FAST... 
e|-------------------------------------------------------------------------|
B|----12--12--12--12----12-----12-----12\---10----10----10----10----10-----|
G|--13--13--11--11--------11-----11-----\-----9-----9-----9-----9-----9----|
D|-------------------13-----13-----13---\-11---11----11----11----11----11--|
A|-------------------------------------------------------------------------|
E|-------------------------------------------------------------------------|

GO TO OUTRO

===============================================================================

Outro:

e|-----------------------------------------------------------------------|
B|----10----10----10----10-------------------10----10----10----10----10--|
G|------9-----9-----9-----9--11-12-11-9--------9-----9-----9-----9-----9-|
D|-12----12----12----12-------------------11----11----11----11----11-----| x3
A|-----------------------------------------------------------------------|
E|-----------------------------------------------------------------------|

e|------------------------------------------------------------------------|
B|----10----10----10----10--------------------10----10----10----10----10--|
G|------9-----9-----9-----9-11p9-11p9-11-9------9-----9-----9-----9-----9-|
D|-12----12----12----12--------------------11----11----11----11----11-----|
A|------------------------------------------------------------------------|
E|------------------------------------------------------------------------|

e|--------------------------------------------------------|
B|---5---5---5\---3----3-----10----10----10----10----10---|
G|----4---4---\----2---2-------9-----9-----9-----9-----9--|
D|-6---6---6--\-4---4--4--11----11----11----11----11------|
A|--------------------------------------------------------|
E|--------------------------------------------------------|

REPEAT OUTRO: ad nauseam

(I like to end on an A chord)

===============================================================================


Remember: don't be afraid to improvise, especially on the last solo part. 


| /  slide up
| \  slide down
| h  hammer-on
| p  pull-off
| ~  vibrato
| +  harmonic
| x  Mute note
===============================================================================