Modest Mouse - Talking Shit About A Pretty Sunset Chords & Tabs

 

Talking Shit About A Pretty Sunset Chords & Tabs

Modest Mouse Chords & Tabs

Version: 3 Type: Tab

Talking Shit About A Pretty Sunset Tab

   
emailme for corrections at mags_andy341@yahoo.com
credit to 761-hero for tabbing this but again i need to correct some things and change
it.
intro
up=U
down=D
E-------------------------------|
B-------------------------------|
G--9--9--9-9-9-9-9-9-9----------|
D--9--9--9-9-9-9-9-9-9----------|
A--7--7--7-7-7-7-7-7-7----------|
E-------------------------------|
   D  D  D U D U D U D
play that tehn slide into the next chord playing the same rythm as that chord
E----------------|
B----------------|(chords to play in intro)
G--9--13--11--9--|
D--9--13--11--9--|
A--7--11--9---7--|
E--0--0---0---0--|

interlude

E------------------------------|
B-12--12--12-10-9--------------|
G---13--13---------------------|
D------------------------------|
A------------------------------|
E------------------------------|
i use a DD-6 boss to play this i put it so that it plays the note again right after you
play teh note so it gives it an echo like in the song.

E-12------------------------------|
B-----12--12-10-9-----------------|
G---13--13------------------------|(same here)
D---------------------------------|
A---------------------------------|
E---------------------------------|
[ Tab from: http://www.guitartabs.cc/tabs/m/modest_mouse/talking_shit_about_a_pretty_sunset_tab_ver_3.html ]
E------12----------------------|
B--12------12--12-10-9----9----|
G----13--13--13-------9-9--9---|(same thing here)
D------------------------------|
A------------------------------|
E------------------------------|

play the intro again and then play this part
when i play from this down i play it like isaac does when he uses a wammy bar. he has
his side of his hand pushing on the bridge to make the wammy work without a bar.
E------------------------------------------|
B----12--12--12--12--12--12---10-----------|
G--13--13--11--11---------------9h11-9h11--|
D------------------13--13---11-------------| x2
A------------------------------------------|
E------------------------------------------|

this is where it goes from that^ to the outro.
E---------------------------------------------|
B----12--12--12--12--12--12---10--10---10-----|
G--13--13--11--11------------------------9----|
D------------------13--13---11--11---11---11--| 
A---------------------------------------------|
E---------------------------------------------|


outro
E------------------------------------------------------|
B----10---------------------5--------------------------|
G-------9----9h11-11h9--------4-------------3----------|
D--11----11---------------6-----6--5--5-555---5--------|
A------------------------------------------------------|
E------------------------------------------------------|