Modest Mouse - Talking Shit About A Pretty Sunset Chords & Tabs

 

Talking Shit About A Pretty Sunset Chords & Tabs

Modest Mouse Chords & Tabs

Version: 2 Type: Tab 0 ratings
1 star 2 stars 3 stars 4 stars 5 stars
comments

Talking Shit About A Pretty Sunset Tab

talking shit about a pretty sunset
by MODEST MOUSE
tabbed by 764-hero
**********************************

The first part progression. Listen to the song for the strumming patterns...

 
E--0--0---0---0--|
B--0--0---0---0--|
G--9--13--11--9--|
D--9--13--11--9--|
A--7--11--9---7--|
E--0--0---0---0--|

the second part...

E------------------------------|
B-12--12--12-10-9--------------|
G---13--13---------------------|
D------------------------------|
A------------------------------|
E------------------------------|

E-12------------------------------|
B-----12--12-10-9-----------------|
G---13--13------------------------|
D---------------------------------|
A---------------------------------|
E---------------------------------|
[ Tab from: http://www.guitartabs.cc/tabs/m/modest_mouse/talking_shit_about_a_pretty_sunset_tab_ver_2.html ]
E------12----------------------|
B--12------12--12-10-9----9----|
G----13--13--13-------9-9--9---|
D------------------------------|
A------------------------------|
E------------------------------|


then it goes back to the first part


then the third part... "Talking Shit about a pretty sunset... change my mind so much..." 

E------------------------------------------|
B----12--12--12--12--12--12---10-----------|
G--13--13--11--11---------------9h11-9h11--|
D------------------13--13---11-------------| x2
A------------------------------------------|
E------------------------------------------|

  Repeat this........    throw in a few of these
E----------------------------------------------------|
B----10---------------------5------------4-----------|
G-------9----9h11-11h9--------4-------------3--------|
D--11----11---------------6-----6-----5--------5-----|
A----------------------------------------------------|
E----------------------------------------------------|
etc, etc...

********************************
Comments