Modest Mouse - Summer Chords & Tabs

 

Summer Chords & Tabs

Modest Mouse Chords & Tabs

Version: 1 Type: Tab 0 ratings
1 star 2 stars 3 stars 4 stars 5 stars
comments

Summer Tab

   
Summer
by:Modest Mouse
Album: The Fruit that Ate Itself

tuning: Eb Ab Db Gb Bb Eb

Main Riff 

eb-||--------------------------------|---------------------------------    
Bb-||--------------------------------|---------------------------------
Gb-||--------------------------------|---------------------------------
Db-||--------------------------------|--10--x--x--10--x--10-10-101010--
Ab-||--10--x--x--10--x--10-10-101010-|--10--x--x--10--x--10-10-101010--
Eb-||--------------------------------|---------------------------------
     ^^^^^^^^^^^play twice^^^^^^^^^^^
[ Tab from: http://www.guitartabs.cc/tabs/m/modest_mouse/summer_tab.html ]
eb-||---------------------------------||
Bb-||---------------------------------||
Gb-||---------------------------------||
Db-||--10--x--x--10--x--12-12-101010--||
Ab-||--10--x--x--10--x--12-12-101010--||
Eb-||---------------------------------||


"dance and go crazy..."

eb-||--------------------------------------------------------------||     
Bb-||--------------------------------------------------------------||
Gb-||--12--12--12\-------------------12--12--12-13-13-12-12-10-----||
Db-||--x---x---x----9--10h11--10h11--x---x---x-----------------13--||
Ab-||--10--10--10\--x--x-------------10--10--10--------------------||
Eb-||---------------7--8-------------------------------------------||

i don't know the strange bendy part. sorry, peace.
Comments