Modest Mouse - Styrofoam Boots Chords & Tabs

 

Styrofoam Boots Chords & Tabs

Modest Mouse Chords & Tabs

Version: 1 Type: Tab 0 ratings
1 star 2 stars 3 stars 4 stars 5 stars
comments

Styrofoam Boots Tab

Modest Mouse
tabbed by: Milesdizzogg
[ Tab from: http://www.guitartabs.cc/tabs/m/modest_mouse/styrofoam_boots_tab.html ]
e|---3-----3---------------3-----3----------------3------3-------------
B|---0-----0---------------0-----0----------------0------0-------------
G|---0-----0------2h0------0-----0-2h0------------0------0--------2h0-0
D|-------------2h0--------------------2h0----------------------2h0-----
A|2-----2--------------2------2----------2h0---2------2-----2----------
E|3-----3-----3------0-3------3----------------3------3-----3----------

e|-------------------------[]
A|-------------------------[]
D|-2h0---------------------[]
G|----2h0-----------2-0----[]
B|-------2h0-2h0-2---------[]
E|----------------------0--[]repeat

strum:
e|-3-| then |-3-|
A|-3-|      |-3-|   
D|-0-|      |-0-|
G|-0-|      |-2-|  
B|-2-|      |-2-|
E|-3-|      |-0-|
Comments