Modest Mouse - Polar Opposites Chords & Tabs

 

Polar Opposites Chords & Tabs

Modest Mouse Chords & Tabs

Version: 1 Type: Tab 0 ratings
1 star 2 stars 3 stars 4 stars 5 stars
comments

Polar Opposites Tab

-------------------------------------------------------------------------------
			     SONG NAME - Band Name
-------------------------------------------------------------------------------
Tabbed by: Ben Krusling
Email: benk0220@yahoo.com

Tuning: Standard

(this the tab for everything in Polar Opposites, starting at 2:00)
Riff 1
e|---------------------------------------------------------------------------|
B|--5555555---0---------0-3--------------------------------------------------|
G|--------------2-2---2------------------------------------------------------|
D|---------------------------------------------------------------------------|
A|---------------------------------------------------------------------------|
E|---------------------------------------------------------------------------|

[ Tab from: http://www.guitartabs.cc/tabs/m/modest_mouse/polar_opposites_tab.html ]
Riff 2  (continues until 3:15)
e|---------------------------------------------------------------------------|
B|---3333-3-33-3/7-7\5-5\3-3/5-5-5555-55-5/7-0----------0-3------------------|
G|-----------------------------------------------2-2--2----------------------|
D|---------------------------------------------------------------------------|
A|---------------------------------------------------------------------------|
E|---------------------------------------------------------------------------|
Riff 3
e|---------------------------------------------------------------------------|
B|---3333-3-33-3/7-7\5-5\3-3/5-5-5555-55-5/7-0------------0-3----------------|
G|-----------------------------------------------2-2-2--2--------------------|
D|---------------------------------------------------------------------------|
A|---------------------------------------------------------------------------|
E|---------------------------------------------------------------------------|
Comments