Modest Mouse - Perfect Disguise Chords & Tabs

 

Perfect Disguise Chords & Tabs

Modest Mouse Chords & Tabs

Version: 4 Type: Tab 0 ratings
1 star 2 stars 3 stars 4 stars 5 stars
comments

Perfect Disguise Tab

  Perfect Disguise
 Tabbed by bbkeen
  (note:used with standard tuning)
 
           * Intro *
 e|----------------------------------
 B|----------------------------------
 G|-9--------9-----------------------
 D|---10-11----11-9-7---------------- x2
 A|----------------------------------
 E|----------------------------------
          * verse *
 e|----------------------------------------
 B|----------------------------------------
 G|----------------------------------------
 D|-11-9-0-7-9--11-9-0-7--9---9-7---9-7---- x2
 A|-------------------------7-----7-----7-9
 E|----------------------------------------

    Then when the vocals kick in (Isaac says:
    "well you've got the perfect disguise...)
   start a strumming pattern with;
   ( I'm not 100% sure about this strumming pattern )

 e|---------------------------------------
 B|---------------------------------------
 G|-11-11---9-9---------------------------
 D|--9--9---7-7---------------------------
 A|---------------------------------------
 E|---------------------------------------

I would recomend buying the moon & antartica to get patterns in order.
[ Tab from: http://www.guitartabs.cc/tabs/m/modest_mouse/perfect_disguise_tab_ver_4.html ]
Comments