Modest Mouse - Perfect Disguise Chords & Tabs

 

Perfect Disguise Chords & Tabs

Modest Mouse Chords & Tabs

Version: 3 Type: Tab 0 ratings
1 star 2 stars 3 stars 4 stars 5 stars
comments

Perfect Disguise Tab

Intro) submitted by Cory M. 

e------------------------------                         
b---5-------5------------------                            
g------5/6---6----------------- 
d-------------------7/9---7---- 
a------------------------------
e------------------------------ 


Riff)
[ Tab from: http://www.guitartabs.cc/tabs/m/modest_mouse/perfect_disguise_tab_ver_3.html ]
E -----------------------------------------------------
B ---2---------------2-------------------0---0-----0---
G -----4---2h4-4-------4---2h4-4---2---2-------2-------
D -------4-------4-------4-------4---2-----------2---2-
A -2---------------2-----------------------0-----------
E -----------------------------------------------------

(note: the rest of the bars are written backwards)

Verse

E --2--  --0--
A --2--  --0--
D --4--  --2-- the strum pattern 
G --4--  --2-- isnt hard to 
B --2--  --0-- figure out
E --2--  --0--

Intro x2
Riff  x3
Intro x2
Riff  x2
Verse x7  that's the song
Riff  x2
Intro x2
Riff
Comments