Modest Mouse - Paper Thin Walls Chords & Tabs

 

Paper Thin Walls Chords & Tabs

Modest Mouse Chords & Tabs

Version: 2 Type: Tab 0 ratings
1 star 2 stars 3 stars 4 stars 5 stars
comments

Paper Thin Walls Tab

this tab is for the other guitar 
Guitar#2 electric
VERSE
E---------------------------------------------------------------------|
B------7-7--7-----------------7-7----7--------------------------------|
G--------------9--6-7-6------------------9---6-7-6-----7-7-7-7-7------|
D-7-7--------------------7-7---------------------------5-5-5-5-5------|
A------------------------------------------------------5-5-5-5-5------|
E---------------------------------------------------------------------|


BRIDGE  (when he sings  "laugh hard.")
E-------------|
B-------------|
G---6h7---9---|
D-------------|
A-------------|
E-------------|

CHORUS
E-------------------|
B-------------------|
G---9---7---4---5---|
D---9---7---4---5---|
A---7---5---2---3---|
E-------------------|
[ Tab from: http://www.guitartabs.cc/tabs/m/modest_mouse/paper_thin_walls_tab_ver_2.html ]
Comments