Modest Mouse - Paper Thin Walls Chords & Tabs

 

Paper Thin Walls Chords & Tabs

Modest Mouse Chords & Tabs

Version: 1 Type: Bass Tab

Paper Thin Walls Bass Tab

   
----------------------------------------------------------------------------
			     Paper Thin Walls - Modest Mouse
----------------------------------------------------------------------------

Tabbed By : SHANE
e-mail: adio_blacklabel@hotmail.com

Tuning:EADG
Well i dont  have a bass but i have two acoustics and an electric. Im playin this
crap by ear on bass and i dont even have one so bear with me if it sucks or whatever.

There is also an acousic in the background i think..if you listen clooooosely you can
hear it or it just might be just on guitar.idk.
[ Tab from: http://www.guitartabs.cc/tabs/m/modest_mouse/paper_thin_walls_btab.html ]
     Intro on electric
G|-------------------------------------------------------------------------|
D|-------------------------------------------------------------------------|
A|-------------------------------------------------------------------------|
E|-------------------------------------------------------------------------|
  This part is when the guitar comes in and bass isnt played until
   this.^
G|-------------------------------------------------------------------------|
D|-------------------------------------------------------------------------|
A|-------5~----------------------------------------------------------------|
E|-------------------------------------------------------------------------|
         then bass comes in after the intro part^
      Verse 1
G|-------------------------------------------------------------------------|
D|-------------------------------------------------------------------------|
A|----------4/7------4/7----5~~~~------------------------------------------|
E|-------5--------5--------------------------------------------------------|
      do that part 5 times^      hold the 5~~~~ 8 beats
      Bridge
G|-------------------------------------------------------------------------|
D|-------------------------------------------------------------------------|
A|----------7------7----5~~~~----------------------------------------------|
E|-------5------5----------------------------------------------------------|
       do that part 4 times^
      Chorus
G|-------------------------------------------------------------------------|
D|-------------------------------------------------------------------------|
A|---------------5~~~~----2~~~~----3~~~~-----------------------------------|
E|-------5~~~~-------------------------------------------------------------|
          play that 3 times
      Verse 2
G|-------------------------------------------------------------------------|
D|-------------------------------------------------------------------------|
A|----------4/7------4/7------5~~~~----------------------------------------|
E|-------5--------5--------------------------------------------------------|

G|-------------------------------------------------------------------------|
D|-------------------------------------------------------------------------|
A|----------7------7----5~~~~----------------------------------------------|
E|-------5------5----------------------------------------------------------|
      play that only once
      Chorus
G|-------------------------------------------------------------------------|
D|-------------------------------------------------------------------------|
A|---------------5~~~~----2~~~~----3~~~~-----------------------------------|
E|-------5~~~~-------------------------------------------------------------|
      play that 3 times^
G|----dont----------------measure----------fill-----------------make-------|
D|----need------------------so--------------it-------------------it--------|
A|----this------------------im--------------up------------------look-------|
E|----last-----------------gonna -----------to------------------kool-------|


| /  slide up
| \  slide down
| h  hammer-on
| p  pull-off
| ~  vibrato
| +  harmonic
| x  Mute note
============================================================================