Modest Mouse - Ocean Breathes Salty Chords & Tabs

 

Ocean Breathes Salty Chords & Tabs

Modest Mouse Chords & Tabs

Version: 2 Type: Bass Tab 0 ratings
1 star 2 stars 3 stars 4 stars 5 stars
comments

Ocean Breathes Salty Bass Tab

INTRO
G-----------------------|
D--------------2--4--5--|
A---3-3--2--------------|
E-----------3-----------|

G-----------------------|
D-----------------------|
A---3-3--2--0----2------|
E--------------3--------|

VERSE
G-----------------------|
D-----------------------|
A---3-3--2--0----2------|
E--------------3--------|
[ Tab from: http://www.guitartabs.cc/tabs/m/modest_mouse/ocean_breathes_salty_btab_ver_2.html ]
G---------------------------|
D--------------------/4-0---|
A---3-3-/2--0----3-3------2-|
E--------------3------------|


CHORUS
G---5-5-5--5h7r0--4---2-2-2-2h4----0--|
D-------------------------------2-----|
A-------------------------------------|
E-------------------------------------|

G----------------0h2r0--------------|
D------5--2-2-5--------3-3----------|
A--3-3------------------------------|
E-----------------------------------|
Comments