Modest Mouse - Never Ending Math Equation Chords & Tabs

 

Never Ending Math Equation Chords & Tabs

Modest Mouse Chords & Tabs

Version: 4 Type: Tab 0 ratings
1 star 2 stars 3 stars 4 stars 5 stars
comments

Never Ending Math Equation Tab

Tabbed by:CMM
Email: colin_michael_muppet@hotmail.com


PM = Palm Muting
+ = Natural Harmonic
p = Pull Off
x = Dead note

As heard on Building Nothing Out of Something, and as seen played live.

(Main Riff)
e|-------------------------------------------------|
B|-------------------------------------------------|
G|-------5-0---------4-0--------5-0-------4-0------|
D|-------x-----------x----------x---------x--------|
A|-7--7--------5--5-------7--7-------5-5-----------|
E|-x--x--------x--x-------x--x-------x-x-----------|
PM...     PM...     PM...     PM...

(Chorus Guitar One)
e|----------------------------|
B|----------------------------|
G|----------------------------|
D|---5------------------------|
A|-7---7--2p0-------10-9------|
E|------------3-/10-----------|
[ Tab from: http://www.guitartabs.cc/tabs/m/modest_mouse/never_ending_math_equation_tab_ver_4.html ]
(Chorus One Guitar Two)
e|-12+----------------12+-----7+------|
B|-----12+----------------12+---------|
G|---------12+------------------------|
D|------------------------------------|
A|------------------------------------|
E|------------------------------------|

(Chorus Two Guitar Two)
e|----------------------------------|
B|----------------------------------|
G|-9-7-9-7-9--7-9-7-9-7-9-7---------|
D|--------------------------9-7-----|
A|----------------------------------|
E|----------------------------------|

(Jam ending riff One)
e|------------------------------------|
B|------------------------------------|
G|------------------------------------|
D|-2-0-2-0-2--0-2-0-2-0-2-0-----------|
A|--------------------------2-0-------|
E|------------------------------------|

(Jam ending riff Two)
e|------------------------------------|
B|------------------------------------|
G|------------------------------------|
D|-2-0-2-0-2--0-2-0-2-0-2-0-----------|
A|------------------------------------|
E|------------------------------------|
Comments