Modest Mouse - Lives Chords & Tabs

 

Lives Chords & Tabs

Modest Mouse Chords & Tabs

Version: 4 Type: Tab 0 ratings
1 star 2 stars 3 stars 4 stars 5 stars
comments

Lives Tab

Modest Mouse
"Lives" 
Tabbed by Cohen Hartman
If you have any questions, comments, or corrections, email me at cohen330@juno.com

No one had this tab correctly on the site, so i had to fix it.


Intro:(Part 1):("Everyone's afraid of their own lives...")
 e|-------------------------------------------------------------------|
 B|--------------------2----------------------------------------------|
 G|--------------------2----------------------------------------------|
 D|--------2---------4---4---------2---------2------------------------|
 A|------4---5-4-2-5-------------4---5-4-2-4--------------------------|
 E|--2-5---------------------2-5--------------------------------------|

-this plays through  the beginning and then later switches into Part 2

Part 2:("well, you were the dull sound of sharp math...")
 e|-------------------------------------------------------------------|
 B|-------------------------------------------------------------------|
 G|--------------------4-4-4-4-4-4-4-4--------------------------------|
 D|--4-4-4-4-4-4-4-4---4-4-4-4-4-4-4-4--------------------------------|
 A|--4-4-4-4-4-4-4-4---2-2-2-2-2-2-2-2--------------------------------|
 E|--2-2-2-2-2-2-2-2--------------------------------------------------|


-the song then goes back tp Part 1 and plays for four measures.  The song then changes
completely and starts off at part 3:(you can figure out the strumming pattern on your
own.)
[ Tab from: http://www.guitartabs.cc/tabs/m/modest_mouse/lives_tab_ver_4.html ]
Part 3:("and it's our lives...and it's hard to remember...")
 e|-------------------------------------------------------------------|
 B|--3-3-3-3-5-5-3-3---15-15-12-12-15-15-12-10-8-3-3-3-3-5-5-3-3------|
 G|--0-0-0-0-0-0-0-0---0--0--0--0--0--0--0--0--0-0-0-0-0-0-0-0-0------|
 D|-------------------------------------------------------------------|
 A|-------------------------------------------------------------------|
 E|-------------------------------------------------------------------|

-this goes on for a little while with Brock saying "it's hard to remember..."
after a while, though, it gets ready to exit into the next part and Brock plays the end to part 3.

 Part 3:("It's hard to remebeeeeeeeer."
 e|-------------------------------------------------------------------|
 B|--15-15-12-10-8-8-8-8----15-15-12-10-8-8-8-8-----------------------|
 G|--0--0--0--0--0-0-0-0----0--0--0--0--0-0-0-0-----------------------|
 D|-------------------------------------------------------------------|
 A|-------------------------------------------------------------------|
 E|-------------------------------------------------------------------|

-fades into Part 4

 Part 4:("My mom's God is a woman, and my mom she is a witch..."
 e|-------------------------------------------------------------------|
 B|-------------------------------------------------------------------|
 G|--5-5-5-5--4-4-4-4-------------------------------------------------|
 D|--5-5-5-5--5-5-5-5--5-5-5-5--4-4-5-4-------------------------------|
 A|--3-3-3-3--2-2-2-2--5-5-5-5--5-5-5-5-------------------------------|
 E|--------------------3-3-3-3--2-2-3-2-------------------------------|

-This plays until Part 1 starts again to end the song.

 Thank you for using my tab and Modest Mouse rules!
Comments