Modest Mouse - Lives Chords & Tabs

 

Lives Chords & Tabs

Modest Mouse Chords & Tabs

Version: 3 Type: Tab 0 ratings
1 star 2 stars 3 stars 4 stars 5 stars
comments

Lives Tab

     "Lives" by Modest Mouse
    From the Moon & Antartica
      Tabbed by : bbkeen


        * Intro *

 e|-------------------------------------------------------------------|
 B|-------------------------------------------------------------------|
 G|-------------------2^----------------------------------------------|
 D|-------2-0-----0-4----4--------------------------------------------|
 A|---0-4-----4-2-----------------------------------------------------|
 E|-2-----------------------------------------------------------------|

 e|-------------------------------------------------------------------|
 B|-------------------------------------------------------------------|
 G|-------------------------------------------------------------------|
 D|-------2-0---------------------------------------------------------|
 A|---0-4-----4-2-4/7-4-2-0-------------------------------------------|
 E|-2-----------------------------------------------------------------|

     If you have the cd ( you probably won't get far without it )
     count the number of beats in each pattern and the number of
     times the pattern is repeated.

   Everyone's affraid of their own lives, If you could be anything you want
   I bet you'd be dissapointed, am I right?
   No one really knows the one's they love, If you knew everything
   they thought,I bet you'd wish that they'd just shut up.

   and then it goes...

 e|-------------------------------------------------------------------|
 B|-------------------------------------------------------------------|
 G|-------------------------------------------------------------------|
 D|-----------4-4444------------4-4444--------------------------------|
 A|-4--4-4-4--2-2222--4--4-4-4--2-2222--------------------------------|
 E|-2--2-2-2----------2--2-2-2----------------------------------------|

   Well you were the dull sound of sharp math when you were alive,
   and no one's gonna play the harp when you die, and if I had a
   nickel for every damn time, I'd have half the time, do you mind?

 e|-------------------------------------------------------------------|
 B|-------------------------------------------------------------------|
 G|-------------------2^----------------------------------------------|
 D|-------2-0-----0-4----4--------------------------------------------|
 A|---0-4-----4-2-----------------------------------------------------|
 E|-2-----------------------------------------------------------------|

 e|-------------------------------------------------------------------|
 B|-------------------------------------------------------------------|
 G|-------------------------------------------------------------------|
 D|-------2-0---------------------------------------------------------|
 A|---0-4-----4-2-4/7-4-2-0-------------------------------------------|
 E|-2-----------------------------------------------------------------|

   Everyone's affraid of their own lives, If you could be anything you want
   I bet you'd be dissapointed, am I right?
   Am I right, am I right, am I right?
[ Tab from: http://www.guitartabs.cc/tabs/m/modest_mouse/lives_tab_ver_3.html ]
                      It's our lives,
        *Part 2*
 e|-------------------------------------------------------------------|
 B|-15-15-15-12-12-12-15-15-15-12-10-8-3------------------------------|
 G|-0--0--0--0--0--0--0--0--0--0--0--0-0------------------------------|
 D|-------------------------------------------------------------------|
 A|-------------------------------------------------------------------|
 E|-------------------------------------------------------------------|

    It's hard to remember, It's hard to remember we're alive for the
    first time
    It's hard to remember, It's hard to remember we're alive from the
    last time
    It's hard to remember, It's hard to remember
    to live before you die
    It's hard to remember, It's hard to remember that our lives, are
    such a short time
    It's hard to remember, It's hard to remember when it takes such a
    long time

         It's hard to remember...
 e|-------------------------------------------------------------------|
 B|-15-15-15-12-12-12-15-15-15-12-10-8-3------------------------------|
 G|-0--0--0--0--0--0--0--0--0--0--0--0-0------------------------------|
 D|-------------------------------------------------------------------|
 A|-------------------------------------------------------------------|
 E|-------------------------------------------------------------------|
         It's hard to remember...


 e|-------------------------------------------------------------------|
 B|-3-3-3-3-3-3-3-3-3-------------------------------------------------|
 G|-------------------------------------------------------------------|
 D|-------------------------------------------------------------------|
 A|-3-3-3-2-2-2-3-3-3-------------------------------------------------|
 E|-3-3-3-2-2-2-3-3-3-------------------------------------------------|

  My moms', god is a woman and my mom she is a witch
  I, like, this
  My hell, comes from in side comes from inside myself
  Why, fight, this

 e|-------------------------------------------------------------------|
 B|-3-3-3-3-3-3-3-3-3-------------------------------------------------|
 G|-------------------------------------------------------------------|
 D|-------------------------------------------------------------------|
 A|-3-3-3-2-2-2-3-3-3----0--------------------------------------------|
 E|-3-3-3-2-2-2-3-3-3-2-3---------------------------------------------|

 e|-------------------------------------------------------------------|
 B|-------------------------------------------------------------------|
 G|-------------------2^----------------------------------------------|
 D|-------2-0-----0-4----4--------------------------------------------|
 A|---0-4-----4-2-----------------------------------------------------|
 E|-2-----------------------------------------------------------------|

 e|-------------------------------------------------------------------|
 B|-------------------------------------------------------------------|
 G|-------------------------------------------------------------------|
 D|-------2-0---------------------------------------------------------|
 A|---0-4-----4-2-4/7-4-2-0-------------------------------------------|
 E|-2-----------------------------------------------------------------|

   Everyone's affraid of their own lives, If you could be anything you want
   I bet you'd be dissapointed, am I right?

 e|-------------------------------------------------------------------|
 B|-------------------------------------------------------------------|
 G|-------------------------------------------------------------------|
 D|-------2-0---------------------------------------------------------|
 A|---0-4-----4-2-4/7-4-2-0-------------------------------------------|
 E|-2-----------------------2-----------------------------------------|
Comments