Modest Mouse - Lives Chords & Tabs

 

Lives Chords & Tabs

Modest Mouse Chords & Tabs

Version: 2 Type: Tab 0 ratings
1 star 2 stars 3 stars 4 stars 5 stars
comments

Lives Tab

Lives by Modest Mouse

Submitted by Cory M.

Intro:
								     
E ----------------------------------------------------
B ----------------------------------------------------
G -------------------2b-------------------------------
D -------2-0-----0-4----4-------2-0-------------------
A ---0-4-----4-2------------0-4-----4-2-4\7-4-2-0-----
E -2----------------------2-----------------------2_start right over
   
 B = bend 2 full bends       

"you were the dull sound"
[ Tab from: http://www.guitartabs.cc/tabs/m/modest_mouse/lives_tab_ver_2.html ]
E ---------
B ---------
G ---------
D -----2---
A --2--4---
E --4------

"its hard to remember"

E -------------------------------
B -15--12--15--12--10--8--3--3---
G -0---0---0---0---0---0--0--0---
D -------------------------------
A -15--12--15--12--10--8--3--2---
E -------------------------------

"my moms god is a woman"

E ----------------------------
B --3--3--------3-3-3-3-------
G --0--0--------0-0-0-0-------
D --0--0--------x-x-0-0-------
A --x--x-----0--x-x-x-x-----0-
E --3--2-2-3----3-2-2-3-2-3---

Then the intro 2x to finish the song
Comments