Modest Mouse - Lives Chords & Tabs

 

Lives Chords & Tabs

Modest Mouse Chords & Tabs

Version: 1 Type: Tab 0 ratings
1 star 2 stars 3 stars 4 stars 5 stars
comments

Lives Tab

---------------------------------------------------------------------
---------------------------------------------------------------------
--------------------------------------2------------------------------
------------2-0--------------0-4------------4------------------------
----0-4-------------4-2----------------------------------------------
-2------------------------------------------------------------------
[ Tab from: http://www.guitartabs.cc/tabs/m/modest_mouse/lives_tab.html ]
---------------------------------------------------------------------
---------------------------------------------------------------------
---------------------------------------------------------------------
------------2-0------------------------------------------------------
-----0-4------------4-2-4-7-4-2-0------------------------------------
-2----------------------------------2--------------------------------


tabbed by jj
Comments