Modest Mouse - Life Like Weeds Chords & Tabs

 

Life Like Weeds Chords & Tabs

Modest Mouse Chords & Tabs

Version: 1 Type: Tab 0 ratings
1 star 2 stars 3 stars 4 stars 5 stars
comments

Life Like Weeds Tab

   
Tabbed by:CMM
Email: colin_michael_muppet@hotmail.com

(Intro/2nd verse)
e|---------------------------------|
B|---------------------------------|
G|-11-x-x-11-x-x-11-x-x-11-11-x-x--|
D|--x-x-x--x-x-x--x-x-x--x--x-x-x--|
A|--9-x-x--9-x-x--9-x-x--9--9-x-x--|
E|---------------------------------|

(Alternated part #1)
e|----------------------------|
B|----------------------------|
G|----------------------------|
D|----------7-----------------|
A|-5--7--9-----9--7--5--5-7---|
E|--------------------------5-|

(Alternated part #2/Intro interlude pt.1)
e|---------------------------------|
B|---------------------------------|
G|---------------------------------|
D|-------7------------7------------|
A|-5-7-9---9-7-5-7--9---9-7-5-7----|
E|------------------------------5--|

(Intro interlude pt.2)
e|--------------------------------------|
B|--------------------------------------|
G|--7~----------------------------------|
D|-----9~--7~---------------------------|
A|---------------9~---7--5--7----9-7-5--|
E|--------------------------------------|

(Intro interlude pt.3)
e|--------------------------------------|
B|--------------------------------------|
G|-7-7----------------------------------|
D|-----9-9-7-7--------------------------|
A|-------------9-9-7-7-5-5----7-9-7-5---|
E|--------------------------------------|

(Guitar Two heard in background at certain points)
e|-------------------|
B|-------------------|
G|-----------7-------|
D|-------7-9---9-7---|
A|-5-7-9-------------|
E|-------------------|
[ Tab from: http://www.guitartabs.cc/tabs/m/modest_mouse/life_like_weeds_tab.html ]
(Background Guitar heard throughout entire part)
e|-------------------------|
B|-------------------------|
G|-------------------------|
D|-12-11-12-11-12-11-12-11-|
A|-------------------------|
E|-------------------------|

(Intro interlude ending/second part of second part of song)
e|--------5~-----------------------5~--------------|
B|-----------------5~-----------------------5~-----|
G|-7b8r7--------------------7b8r7------------------|
D|----------7b8r7--------------------7b8r7---------|
A|-------------------------------------------------|
E|-------------------------------------------------|

(Middle of song)
e|-------|
B|-------|
G|-14b---|
D|-14b---|
A|-12b---|
E|-------|
   A5
Note: Use a whammy to bend the shit of this chord

("Chorus")
e|-------------------|
B|-------------------|
G|-14--12--11--9--7--|
D|--x---x---x--x--x--|
A|-12--10---9--7--5--|
E|-------------------|

("Chorus" variation when Live)
e|------------------------|
B|------------12----------|
G|-14--12--11--x-11\9--7--|
D|--x---x---x--9--x-x--x--|
A|-12--10---9-----9\7--5--|
E|------------------------|

(Outro variation one)
e|--------------------------------------|
B|--------------------------------------|
G|--------------------------------------|
D|---4h5--5/7-5--5/7--5p4-5p4-----------|
A|-5--------------------------5---------|
E|--------------------------------------|

(Outro variation two)
e|-------------------------------|
B|-------------------------------|
G|---------------4h5-7p5-4-------|
D|---4h5--5/7-5------------5-----|
A|-5-----------------------------|
E|-------------------------------|

(Ending)
e|-0b--|
B|-0b--|
G|-0b--|
D|-0b--|
A|-0b--|
E|-0b--|

Note: I heard Isaac make a this sound live the other day and Im pretty sure he was just
bending open strings without strumming.
Comments