Modest Mouse - Karma Payment Plan Chords & Tabs

 

Karma Payment Plan Chords & Tabs

Modest Mouse Chords & Tabs

Version: 1 Type: Tab 0 ratings
1 star 2 stars 3 stars 4 stars 5 stars
comments

Karma Payment Plan Tab

karma payment plan
modest mouse

this is a first attempt, so pardon any errors

/=slide     *=mute hit

the song starts with a sort of ambient bass line along with some other noise

E|-3/5-3---*----0----5/7-5---*---0---1/3-1---*---0---8/10-8---*---0---|

or something close to that....then the song switches, still with the bass

E|-5--------------3--------------/8-------------1-------------|

then the rythm guitar comes in:
[ Tab from: http://www.guitartabs.cc/tabs/m/modest_mouse/karma_payment_plan_tab.html ]
e|----------------------------------------------------------------|
b|----------------------------------------------------------------|
g|-------6----------4----------9----------2------|
d|-------7--7-------5--5-------1010-------3--3--|
a|-7--7--7--7--5--5--5--5-/1010101010/3--3--3--3--|
e|-5--5--5--5--3--3--3--3-/8--8--8--8--8-/1--1--1--1--|

play around with some palm muting and thats the song
i havnt figured out the rest of the guitar parts, but this will get you through it
and give you something to play with
its a good song to TRY to sing with....have fun
Comments