Modest Mouse - Ionizes And Atomizes Chords & Tabs

 

Ionizes And Atomizes Chords & Tabs

Modest Mouse Chords & Tabs

Version: 1 Type: Tab 0 ratings
1 star 2 stars 3 stars 4 stars 5 stars
comments

Ionizes And Atomizes Tab

   
Song: Atomizes and Ionizes
Artist: Modest Mouse
Album: This is a Long Drive for Somemone With Nothing to Think About

by: jharp.

Song opens with Riff A twice then kicks into VERSE 1

Riff A plays through the whole song

Play Riff B once at the end of each VERSE

The Solo is after VERSE 3,  followed by Riff C


only notation I used

h = hammer-on
p = pull-off
/ = slide down
 
Riff A
e|---------------------------------------------------------------------------|
B|---------------------------------------------------------------------------|
G|----------------------------------------5----7-----------------------------|
D|--------------------5----------------7--7----------------------------------|
A|-----------------------7h8--7--5--8----------------------------------------|
E|--6--6--6--6--5--5---------------------------------------------------------|

Riff B
e|---------------------------------------------------------------------------|
B|----------------------------------8--10--8---------------------------------|
G|---------------------------9--10------------10-----------------------------|
D|--7h8--8--8--7h8--7--7--7------------------------7h8-----------------------|
A|---------------------------------------------------------------------------|
E|---------------------------------------------------------------------------|
[ Tab from: http://www.guitartabs.cc/tabs/m/modest_mouse/ionizes_and_atomizes_tab.html ]
Riff C
e|---------------------------------------------------------------------------|
B|---------------------------------------------------------------------------|
G|---------------------------------------------------------------------------|
D|--7--8--10------7--8--10-----7--8--10--------------------------------------|
A|------------8-------------8------------8--10--10--10h12--10----------------|
E|---------------------------------------------------------------------------|

Solo
e|---------------------------------------------------------------------------|
B|--11--11--11--11--11p9--9--9--9--14--14--14--14--14/11--11--11--11---------|
G|--------------------------------------------------------------------------*|
D|--------------------------------------------------------------------------*|
A|---------------------------------------------------------------------------|
E|---------------------------------------------------------------------------|


VERSE 1

She ionizes and atomizes
then she turns into sunlight.

VERSE 2

He realizes and itemizes
pulls harder than gravity.

VERSE 3

She ionizes and atomizes
then she turns into sunlight,
for as sun lightbulbs will
make an absence of dark
but the light just ain't there still, 
and she said,

"I am feeling emp-ty-he-he-he, 
the real lights can make you hea-vy-y-y.
But never ever really empty."
Comments