Modest Mouse - Interstate 8 Chords & Tabs

 

Interstate 8 Chords & Tabs

Modest Mouse Chords & Tabs

Version: 2 Type: Bass Tab 0 ratings
1 star 2 stars 3 stars 4 stars 5 stars
comments

Interstate 8 Bass Tab

tab written by : ben canfield
\ = slide down
/ = slide up
T = time
() = sometimes does it.

I tried to do the timing to the best of my ablility.


G|------------------------|------------------------|
D|------------------------|------------------------|   
A|10-----10-10------------|10-----10-10------------|   X2
E|------------------10----|------------------10----|

T-1--2--3--4--5--6--7--8--|1--2--3--4--5--6--7--8--|


G|----------12\-----------|------------------------|
D|--------9---------------|----------12\-----------|   
A|10----------------------|--------9---------------|   X5
E|------------------------|10----------------------|

T-1--2--3--4--5--6--7--8--|1--2--3--4--5--6--7--8--|


G|-------------------(/12)|------------------------|          sometimes in this
D|------------------------|-------------------(/12)|          part he slides up
A|10----------10\---------|------------------------|   X4     to the ocatve, but
E|------------------------|10----------10\---------|          it's really quiet.
                            
T-1--2--3--4--5--6--7--8--|1--2--3--4--5--6--7--8--|      (thats the (/12) part)

G|------------------------|
D|------------------------| 
A|10-----10-10------------|  X3
E|------------------10----|

T-1--2--3--4--5--6--7--8--|

G|----------12\-----------|------------------------|
D|--------9---------------|----------12\-----------|   
A|10----------------------|--------9---------------|   X4
E|------------------------|10----------------------|

T-1--2--3--4--5--6--7--8--|1--2--3--4--5--6--7--8--|

G|-------------------(/12)|------------------------|          
D|------------------------|-------------------(/12)|          
A|10----------10\---------|------------------------|   X4     
E|------------------------|10----------10\---------|          

T-1--2--3--4--5--6--7--8--|1--2--3--4--5--6--7--8--|
[ Tab from: http://www.guitartabs.cc/tabs/m/modest_mouse/interstate_8_btab_ver_2.html ]
G|------------------------|
D|------------------------|  
A|10-----10-10------------|   X3
E|------------------10----|

T-1--2--3--4--5--6--7--8--|

G|------------------------|------------------------|------------------------|------------------------|
D|------------------------|------------------------|------------------------|------------------------|      
A|10-10-10-10-10-10-10-10-|10-10-10-10-10-10-10-10-|------------------------|------------------------|      
E|------------------------|------------------------|10-10-10-10-10-10-10-10-|10-10-10-10-10-10-10-10-|

T-1--2--3--4--5--6--7--8--|1--2--3--4--5--6--7--8--|1--2--3--4--5--6--7--8--|1--2--3--4--5--6--7--8--|

do that 2 times.



G|------------------------|------------------------|    
D|----------9-------------|----------9-------------| 
A|-9-10-12----12-10-9-10--|-9-10-12----12-10-9-10--| 
E|------------------------|------------------------|

T-1--2--3--4--5--6--7--8--|1--2--3--4--5--6--7--8--|

G|------------------------|------------------------|
D|------------------------|------------------------|    
A|----------9-------------|----------9-------------| 
E|-9-10-12----12-10-9-10--|-9-10-12----12-10-9-10--| 

T-1--2--3--4--5--6--7--8--|1--2--3--4--5--6--7--8--|

do that 2 times




G|------------------------|------------------------|    
D|----------9-------------|----------9-------------| 
A|-9-10-12----------------|-9-10-12----------------| 
E|------------------------|------------------------|

T-1--2--3--4--5--6--7--8--|1--2--3--4--5--6--7--8--|

G|------------------------|------------------------|
D|------------------------|------------------------|    
A|----------9-------------|----------9-------------| 
E|-9-10-12----------------|-9-10-12----------------| 

T-1--2--3--4--5--6--7--8--|1--2--3--4--5--6--7--8--|

I think there might be one more set of these, but I'm too lazy to check. It's really
easy to hear it so just listen.
Comments