Modest Mouse - I Came As A Rat Chords & Tabs

 

I Came As A Rat Chords & Tabs

Modest Mouse Chords & Tabs

Version: 3 Type: Tab 0 ratings
1 star 2 stars 3 stars 4 stars 5 stars
comments

I Came As A Rat Tab


e----------------------------------------------------------------------|
B----------------------------------------------------------------------|
G--------------5-------------------------------------------------------|
D----7-------5---5-------5---------3-----------------------------------|
A---7-7----3-----------5---5-----3---3---------------------------------|
E--5-----------------3---------1---------------------------------------|

[ Tab from: http://www.guitartabs.cc/tabs/m/modest_mouse/i_came_as_a_rat_tab_ver_3.html ]
e----------------------------------------------------------------------|
B----------------------------------------------------------------------|
G--------------5-------------------------------------------------------|
D----7-------5---5-------5---------3-----------------------------------|
A---7-7----3-----------5---5-----3---3---------------------------------|
E--5-----------------3---------1---------------------------------------|

Repeat however many times its in the song.


thanks..jb
Comments