Modest Mouse - I Came As A Rat Chords & Tabs

 

I Came As A Rat Chords & Tabs

Modest Mouse Chords & Tabs

Version: 2 Type: Tab 0 ratings
1 star 2 stars 3 stars 4 stars 5 stars
comments

I Came As A Rat Tab

   
Modest Mouse-I Came As A Rat
The Moon & Antarctica
Tabbed By Mike Rall(Em0-Guitarist) 
Tuning-Standard E-A-D-G-B-E
Email-Afr0EmoMike

Key:
.=Mute
~=Let Ring
h=Hammer On


*Intro*
Guitar 1
e|----------------------------------------------|
B|----------------------------------------------|
G|------------------5---------------------------|
D|--------7-------5---5---------5----------3----|X8
A|-----7----7---5-------------5---5------3---3--|
E|--5----------------------5----------1---------|
    .  .  . .   . . . .    .  . . .   .  . . .

Guitar 2
e|---------------------------------|
B|---------------------------------|
G|-----7b~--7b~--7b~-7--9~--12--9--|
D|---------------------------------|X4
A|---------------------------------|
E|---------------------------------|


*Verse*
Guitar 1
e|--------------------------------|
B|--------------------------------|
G|-------5-5----------------------|
D|--7-7--5-5--5-5--3-3------------|X8
A|--7-7--3-3--5-5--3-3------------|
E|--5-5-------3-3--1-1------------|

*Chorus*
Guitar 1
e|----------------------------------------------------------|
B|----------------------------------------------------------|
G|--9h10-9h10--7--5-----------------------------------------|
D|-------------------9h10-9h10--7--5-----5-----5-----5------|X2
A|------------------------------------9-----9-----9-----9---|
E|----------------------------------------------------------|
[ Tab from: http://www.guitartabs.cc/tabs/m/modest_mouse/i_came_as_a_rat_tab_ver_2.html ]
Guitar 2(played at the secound 
time of Guitar 1's Chorus riff)
e|-------------------------------|
B|----------------------8--------|
G|--9h10-9h10--7--5--4-----------|
D|-------------------------------|X1
A|-------------------------------|
E|-------------------------------|

*Verse*
Guitar 1
e|--------------------------------|
B|--------------------------------|
G|-------5-5----------------------|
D|--7-7--5-5--5-5--3-3------------|X5
A|--7-7--3-3--5-5--3-3------------|
E|--5-5-------3-3--1-1------------|

*Chorus*
Guitar 1
e|----------------------------------------------------------|
B|----------------------------------------------------------|
G|--9h10-9h10--7--5-----------------------------------------|
D|-------------------9h10-9h10--7--5-----5-----5-----5------|X2
A|------------------------------------9-----9-----9-----9---|
E|----------------------------------------------------------|

Guitar 2(played at the secound 
time of Guitar 1's Chorus riff)
e|-------------------------------|
B|----------------------8--------|
G|--9h10-9h10--7--5--4-----------|
D|-------------------------------|X1
A|-------------------------------|
E|-------------------------------|

Guitar 2(Played throughout
the end of song)
e|-------------------------------|
B|--9-9-9h10-9-9-9h10-12---------|
G|-------------------------------|
D|-------------------------------|XA Lot
A|-------------------------------|
E|-------------------------------|

Guitar 1(Listen to song for the 
correct timing) 
e|-------------------------------|
B|---2-3-------------------------|
G|-4-----2-----------------------|
D|---------4-0-2-2h4-------------|X5
A|-------------------2-----------|
E|-------------------------------|
Comments