Modest Mouse - Here It Comes Chords & Tabs

 

Here It Comes Chords & Tabs

Modest Mouse Chords & Tabs

Version: 1 Type: Tab 0 ratings
1 star 2 stars 3 stars 4 stars 5 stars
comments

Here It Comes Tab

main part

e---------------------------------------------------------------------
b------------------------12-10----------------------------------------
g--9h11----------------------------9h11-------------------------------
d----------9----12-------------------------9-------12-----------------
a---------------------------------------------------------------------
E---------------------------------------------------------------------


verse is something like this 
[ Tab from: http://www.guitartabs.cc/tabs/m/modest_mouse/here_it_comes_tab.html ]
e---------------------------------------------------------------------
b---------------------------------------------------------------------
g-9-9-9-11-11-11------------------------------------------------------
d------------------------12-------------------------------------------
a---------------------------------------------------------------------
E---------------------------------------------------------------------


well there you go te tuning is probly standrd tuning.you could find
out on your own.


h=hammer on 
Comments