Modest Mouse - Gravity Rides Everything Chords & Tabs

 

Gravity Rides Everything Chords & Tabs

Modest Mouse Chords & Tabs

Version: 1 Type: Tab 0 ratings
1 star 2 stars 3 stars 4 stars 5 stars
comments

Gravity Rides Everything Tab

Modest Mouse-Gravity Rides Everything
Tabbed by Cohen Hartman of Baton Rouge, La
-this tab sounds perfect with the song, guaranteed.
If you have any questions or corrections, or perhaps you just want to chat, email me
at Cohen330@Juno.com -Thanks


Intro:
e---------------------------------------------------------------------------]
B--5(bend)--5(bend)---------------------------------------------------------]
G--------------------4(bend)--4(bend)---------------------------------------]
D---------------------------------------------------------------------------]
A---------------------------------------------------------------------------]
E---------------------------------------------------------------------------]

Guitar 1:
e--0-0-2-0-0-0-0-0--0-0-0-0-0-0-0-0--0-0-0-0-0-0-0-0---0-0-0-0-0-0-0-0------]
B--2-2-2-2-2-2-2-2--0-0-0-0-0-0-0-0--2-2-2-2-2-2-2-2---0-0-0-0-0-0-0-0------]
G--2-2-2-2-2-2-2-2--1-1-1-1-1-1-1-1--2-2-2-2-2-2-2-2---1-1-1-1-1-1-1-1------]
D--2-2-2-2-2-2-2-2--2-2-2-2-2-2-2-2--2-2-2-2-2-2-2-2---2-2-2-2-2-2-2-2------]
A--0-0-0-0-0-0-0-0--2-2-2-2-2-2-2-2--0-0-0-0-0-0-0-0---2-2-2-2-2-2-2-2------]
E-------------------0-0-0-0-0-0-0-0--------------------0-0-0-0-0-0-0-0------]


e--0-0-2-0-0-0-0-0--0-0-0-0-0-0-0-0--0-0-0-0-0-0-0-0---0-0-0-0-0-0-0-0------]
B--2-2-2-2-2-2-2-2--0-0-0-0-0-0-0-0--2-2-2-2-2-2-2-2---0-0-0-0-0-0-0-0------]
G--2-2-2-2-2-2-2-2--1-1-1-1-1-1-1-1--2-2-2-2-2-2-2-2---1-1-1-1-1-1-1-1------]
D--2-2-2-2-2-2-2-2--2-2-2-2-2-2-2-2--2-2-2-2-2-2-2-2---2-2-2-2-2-2-2-2------]
A--0-0-0-0-0-0-0-0--2-2-2-2-2-2-2-2--0-0-0-0-0-0-0-0---2-2-2-2-2-2-2-2------]
E-------------------0-0-0-0-0-0-0-0--------------------0-0-0-0-0-0-0-0------]

--Repeat for most of song
[ Tab from: http://www.guitartabs.cc/tabs/m/modest_mouse/gravity_rides_everything_tab.html ]
2nd Guitar:comes in after four measures of Guitar 1
e---------------------------------------------------------------------------]
B---------------------------------------------------------------------------]
G---------------------------------------------------------------------------]
D------6-7(slide)9-7-6------6-7(slide)9-7-6---------------------------------]
A--7-7-------------------7-7------------------------------------------------]
E---------------------------------------------------------------------------]


e---------------------------------------------------------------------------]
B---------------------------------------------------------------------------]
G---------------------------------------------------------------------------]
D------------------6---------------------6----------------------------------]
A------6-7(slide)9---7-------6-7(slide)9---7--------------------------------]
E--7-7-------------------7-7------------------------------------------------]


3rd Guitar: doing a little Mexican riff
e---------------------------------------------------------------------------]
B---------------------------------------------------------------------------]
G----6-9-6----------------6-9-6---------------------------------------------]
D--7-------6-7-9-7-6----7-------6-7-9-7-6-----------------------------------]
A---------------------------------------------------------------------------]
E---------------------------------------------------------------------------]


e---------------------------------------------------------------------------]
B---------------------------------------------------------------------------]
G---------------------------------------------------------------------------]
D----6-9-6---------------6-9-6----------------------------------------------]
A--7-------6-7-9-7-6----7------6-7-9-7-6------------------------------------]
E---------------------------------------------------------------------------]

--Guitar 1 part plays again for rest of the song after this last riff is finished
--Guitar 2 comes in near the end of the song

Guiatr 4:  does a few notes near end of song (repeat until song fades)
e---------------------------------------------------------------------------]
B--7-9-5-7-5(bend)-5(bend)---------7-9-5-7-5(bend)-5(bend)------------------]
G--------------------------4(bend)-------------------------4(bend)----------]
D---------------------------------------------------------------------------]
A---------------------------------------------------------------------------]
E---------------------------------------------------------------------------]
Comments