Modest Mouse - Good Times Are Killing Me Chords & Tabs

 

Good Times Are Killing Me Chords & Tabs

Modest Mouse Chords & Tabs

Version: 1 Type: Bass Tab 0 ratings
1 star 2 stars 3 stars 4 stars 5 stars
comments

Good Times Are Killing Me Bass Tab

   
                    THE GOOD TIMES ARE KILLING ME
                     As Recorded By Modest Mouse
      From The 2004 Album 'Good News For People Who Love Bad News'


Words And Music by Modest Mouse
Transcribed by Kotie A.


Bass I (E A D G) - 'Untitled'

Medium Pace Rock Q-100
 4/4

Intro:
G|-------------------------------------------------------------|
D|-------------------------------8-10--10-8-7---8-10--10-8-7---| x2
A|-8-10--10-8-7---8-10--10-8-7---------------------------------|
E|-------------------------------------------------------------|

G|-------------------------------------------------------------10-----------|
D|-------------------------------8-10--10-8-7---8-10--10-10/12----12\10-8---|
A|-8-10--10-8-7---8-10--10-8-7----------------------------------------------|
E|--------------------------------------------------------------------------|
[ Tab from: http://www.guitartabs.cc/tabs/m/modest_mouse/good_times_are_killing_me_btab.html ]
Chorus:
G|-------------------------------------------------------------|
D|-------------------------------8-10--10-8-7---8-10--10-8-7---|
A|-8-10--10-8-7---8-10--10-8-7---------------------------------|
E|-------------------------------------------------------------|

Verse:
G|-------------------------------------------------------------|
D|-------------------------------8-10--10-8-7---8-10--10-8-7---| x2
A|-8-10--10-8-7---8-10--10-8-7---------------------------------|
E|-------------------------------------------------------------|

Chorus:
G|-------------------------------------------------------------|
D|-------------------------------8-10--10-8-7---8-10--10-8-7---|
A|-8-10--10-8-7---8-10--10-8-7---------------------------------|
E|-------------------------------------------------------------|


[Interlude]


Verse/Outro
G|----------------------------------------------10-----------|
D|-------------------------------8-10--10-10/12----12\10-8---|
A|-8-10--10-8-7---8-10--10-8-7-------------------------------|
E|-----------------------------------------------------------|

G|----------------------|    |-------------------|
D|-8-10--10-12-10-8-7---| x7 |-------------------| Play This The Last
A|----------------------|    |-------------------| Time Through If You
E|----------------------|    |-1-1-1-1-1-1-1-1-1-| Want To

[End]
Comments