Modest Mouse - Float On Chords & Tabs

 

Float On Chords & Tabs

Modest Mouse Chords & Tabs

Version: 8 Type: Tab 0 ratings
1 star 2 stars 3 stars 4 stars 5 stars
comments

Float On Tab

song: float on
artist: modest mouse
tabber: abass


main chord set

E--6---6--6-6-6-6--6---6--6-6-6-6--6---6--6-6-6-6--6----
B--6h7-7--7-7-7-7--7p6-6--6-6-6-6--6h7-7--7-7-7-7--7p6--
G--6---6--6-6-6-6--6---6--6-6-6-6--6h8-8--8-8-8-8--8p6--
D-------------------------------------------------------
A-------------------------------------------------------
E-------------------------------------------------------

lead riff        x 3
[ Tab from: http://www.guitartabs.cc/tabs/m/modest_mouse/float_on_tab_ver_8.html ]
E---------9-------------------------
B-----11-----11--9--11-11-11-11-11--
G-10--------------------------------
D-----------------------------------
A-----------------------------------
E-----------------------------------

then

i know he plays this riff for sure at the end of the first 2 riff sets, and is 
slightly modified later in the song, he also tremolo's the 11th fret note rather 
than picking it individually six times at certain/most points. he hits it about 12 
times in said parts.

E-----------------------------------
B--11--11--11--11--11--11--9--7-----
G-----------------------------------
D-----------------------------------
A-----------------------------------
E-----------------------------------


i am working on the solo. shall have it soon!
Comments