Modest Mouse - Float On Chords & Tabs

 

Float On Chords & Tabs

Modest Mouse Chords & Tabs

Version: 7 Type: Tab 0 ratings
1 star 2 stars 3 stars 4 stars 5 stars
comments

Float On Tab

MODEST MOUSE
"Float On"

Standard Tuning


Rhythm Guitar
Listen to song for strumming
|---------------------------------|
|6-7-7-7-7-6-6-6-6-7-7-7-7-6-6-6-6|
|6-6-6-6-6-6-6-6-6-8-8-8-8-6-6-6-6|
|---------------------------------|
|---------------------------------|
|---------------------------------|
[ Tab from: http://www.guitartabs.cc/tabs/m/modest_mouse/float_on_tab_ver_7.html ]
Lead Guitar Part One 3X
|6-9-6--6-6-6-6--| 
|------9--------6|
|----------------|
|----------------|
|----------------|
|----------------|

Lead Guitar Part Two
|6-6-6-6-6-6------|
|------------9-6-6|
|-----------------|
|-----------------|
|-----------------|
|-----------------|

Rhythm Guitar Bridge is the intro picked out
Comments