Modest Mouse - Float On Chords & Tabs

 

Float On Chords & Tabs

Modest Mouse Chords & Tabs

Version: 6 Type: Tab 0 ratings
1 star 2 stars 3 stars 4 stars 5 stars
comments

Float On Tab

submitted by andy

CAPO ON 6

Main song: (listen to song for strumming)
e|-|--0-0-0-0----|-|
B|-|--1-0-2-0----|-|
G|-|--0-0-3-0----|-|
D|-|--------2----|-|
A|-|-------------|-|
E|-|-------------|-|

Riff:
e|-|---0-3-0---0-0000-|-|---0-3-0---0-000---|-|
B|-|-1-------3--------|-|-0-------3---------|-|
G|-|------------------|-|-------------------|-|
D|-|------------------|-|-------------------|-|
A|-|------------------|-|-------------------|-|
E|-|------------------|-|-------------------|-|
[ Tab from: http://www.guitartabs.cc/tabs/m/modest_mouse/float_on_tab_ver_6.html ]
e|-|---0-3-0---0-0000-|-|--00-0-000----------|-|
B|-|-0-------3--------|-|-----------3-1------|-|
G|-|------------------|-|--------------------|-|
D|-|------------------|-|--------------------|-|
A|-|------------------|-|--------------------|-|
E|-|------------------|-|--------------------|-|

Chorus:
e|-|---0----0----0----0---|-|---0----0-------0------|-|
B|-|--1-1--1-1--0-0--0-0--|-|--1-1--1-1---0---0-0---|-|
G|-|-0----0----0----0-----|-|-2----2-----0-0---0----|-|
D|-|----------------------|-|-----------2-----------|-|
A|-|----------------------|-|-----------------------|-|
E|-|----------------------|-|-----------------------|-|
Comments