Modest Mouse - Float On Chords & Tabs

 

Float On Chords & Tabs

Modest Mouse Chords & Tabs

Version: 5 Type: Tab 0 ratings
1 star 2 stars 3 stars 4 stars 5 stars
comments

Float On Tab

   
Modest Mouse - Float On

Tabbed by: Truly Ninja
Email: trulyninja@hotmail.com

thanks to  Matt Lindblom

Tuning:EADGBe
[ Tab from: http://www.guitartabs.cc/tabs/m/modest_mouse/float_on_tab_ver_5.html ]
Progression
   F#     Bbm  F#6   B#m
e|--2------1----2-----1------------------------------------------------------|
B|--2------2----4-----2------------------------------------------------------|
G|--3------3----3-----3------------------------------------------------------|
D|--4------3----4-----3------------------------------------------------------|
A|-(4)----(1)--------(1)-----------------------------------------------------|
E|-(2)-----------------------------------------------------------------------|

Solo       (play 3x)
e|---/----------------------------\------------------------------------------|
B|--/---11-14-11----11-11---11-11--\----11-11-11-11-11-11--------------------|
G|-/-11----------13-----------------\---------------------13-11-11-----------|
D|-\--------------------------------/----------------------------------------|
A|--\------------------------------/-----------------------------------------|
E|---\----------------------------/------------------------------------------|
Comments