Modest Mouse - Float On Chords & Tabs

 

Float On Chords & Tabs

Modest Mouse Chords & Tabs

Version: 4 Type: Tab 2 ratings
1 star 2 stars 3 stars 4 stars 5 stars
comments

Float On Tab

   
Hey this is my first tab. Hope you like it. It should be easy to
understand since i sorta don't know how to read tab.
e-mail me if you have any comments at: Legoxlovinxbrie@yahoo.com

Guitar 1 (througout the whole song)
e-6-6-6-6-
B-7-6-4-6-
G-6-6-4-6-
D---------
A---------
E--------- Listen for strum patern

Guitar two riff (Listen for where it pops up in the song)

e--------------------------------------------------------------
B-----11-14-11----11-11-11-11-11----11-14-11----11-11-11-11-11-
G--11----------13----------------10----------13----------------
D--------------------------------------------------------------
A--------------------------------------------------------------
E--------------------------------------------------------------
[ Tab from: http://www.guitartabs.cc/tabs/m/modest_mouse/float_on_tab_ver_4.html ]
e--------------------------------------------------------
B---11-14-11----11-11-11-11-11---11-11-11-11-11-11-------
G-9----------13------------------------------------13-11-
D--------------------------------------------------------
A--------------------------------------------------------
E--------------------------------------------------------

Chorus Guitar two

e------6-------6-------6-------6-----
B----7---7---7---7---6---6---6---6---
G--6-------6-------6-------6-------6-
D------------------------------------
A------------------------------------
E------------------------------------x4

Tabbed by yours truly, Brie Cruz. I'm positive this is right. If it
is not. E-mail me and tell me what's wrong. Then i'll tab the 
corrections. Thanks! 


To my elvish friends at sig rogich middle school:

Amin mela lle tenna 'i tella 'en coiasira!
thanks for helping me with my first tab.

Comments