Modest Mouse - Float On Chords & Tabs

 

Float On Chords & Tabs

Modest Mouse Chords & Tabs

Version: 3 Type: Tab 0 ratings
1 star 2 stars 3 stars 4 stars 5 stars
comments

Float On Tab

   
#----------------------------------PLEASE 
NOTE---------------------------------#
#This file is the author's own work and represents their 
interpretation of the #
#song. Does anyone really read this? #
#-----------------------##

Title: 		Float On
Band: 		Modest Mouse
Transcribed By:	AnDro0z13 (and-roo-zee)
My Email:	Squall72788@hotmail.com

Intro Chords:
E|--6------6----
B|--6h7----6----
G|--6------6----
D|--6h8----6----
A|--6------8----
E|---------6----
   D#m7    A#m7       (Variate hammer on's)

Chord Progression B:
F#    F#/F    B    Bbm
I'm not sure if the guitar even plays this because it's hard to hear 
the rhythm guitar during the verse. It might just play the intro 
chords. However, this progression sounds great and it goes along 
with the bass part.

Riff A:
E|-6-9-6---6-6--6-6-(repeat 3x)-6-6-6-6-6-6-6--------
B|-------9------------------------------------9-7----
G|---------------------------------------------------
D|---------------------------------------------------
A|---------------------------------------------------
E|---------------------------------------------------

Riff B: 
E|-----6-------
B|---7----7----
G|-------------
D|-4-----------
A|-------------
E|-------------
[ Tab from: http://www.guitartabs.cc/tabs/m/modest_mouse/float_on_tab_ver_3.html ]
Riff C:
E|-----------
B|--7-6------
G|------6----
D|-----------
A|-----------
E|-----------

Intro: Intro Chords 2x
Intro Part 2: Intro Chords 2x OR Chord Progession B 1x, Riff A 1x
Verse 1: Intro Chords 4x OR Chord Progression B 2x
Instrumental: Intro Chords 2x OR Chord Progession B 1x, Riff A 1x
Semi-Breakdown: Riff B 16x
Verse 2: Intro Chords x6 OR Chord Progression B 3x
Instrumental: Intro Chords 2x OR Chord Progession B 1x, Riff A 1x
Semi-Breakdown: Riff B 16x
Chorus: Intro Chords 4x OR Chord Progression B 2x, Riff A 2x
Breakdown: Riff C 1x
Chorus (2:56-3:16): Intro Chords 4x OR Chord Progression B 2x,                  Riff A 2x

Chords Used:
E|-----------------------------------------------------------
B|--------11---------------------------------------------------
G|--3-----11----------------------------------------------------
D|--4--or-11-----------------------------------------------------
A|--4-----11----------------------------------------------------
E|--1-----8----------------------------------------------------
      F#/F

So that's pretty much it. I hope the order isn't too confusing. 
I tried to make it as clear a possible. Remember you can play 
the intro chords or the chord progression in the parts indicated, 
although I think the progression sounds better. Expect more tabs 
from my favorite bands soon, directly only to GTU @ www.guitartabs.cc

-AnDro0z13
Comments