Modest Mouse - Float On Chords & Tabs

 

Float On Chords & Tabs

Modest Mouse Chords & Tabs

Version: 2 Type: Tab 2 ratings
1 star 2 stars 3 stars 4 stars 5 stars
comments

Float On Tab

Artist: Modest Mouse
Song: Float On


I noticed that there were some inaccuracies in the other 
submissions on here so I figured I'd make things a little clearer. 
Any questions or comments can be sent to bborred@hotmail.com


Here is the chord progression used in the intro and throughout the 
verse. Listen to the song to get the timing and strumming down.

|-6---6---6---6-|
|-7---6---4---6-|
|-6---6---4---6-|
|---------------|
|---------------|
|---------------|

[ Tab from: http://www.guitartabs.cc/tabs/m/modest_mouse/float_on_tab_ver_2.html ]
And here is the cool main riff. The 6's at near the end are 
slightly bent and muted.

|---6-9-6---6-6-6-6-----6-9-6---6-6-6-6-----6-9-6---6-6-6-6---6-6-6-6-6-6-----|
|-7-------7-----------6-------6-----------7-------7-----------------------9-7-|
|-----------------------------------------------------------------------------|
|-----------------------------------------------------------------------------|
|-----------------------------------------------------------------------------|
|-----------------------------------------------------------------------------|



Comments