Modest Mouse - Float On Chords & Tabs

 

Float On Chords & Tabs

Modest Mouse Chords & Tabs

Version: 14 Type: Tab 0 ratings
1 star 2 stars 3 stars 4 stars 5 stars
comments

Float On Tab

   
-------------------------------------------------------------------------------
			     Float On - Modest Mouse
-------------------------------------------------------------------------------
Tabbed by: Matt (Ceakoth)
Email: spleenplowg@hotmail.com

Tuning: EADGBE
I'm not sure Guitar 1 may capo the first fret, but i'm not sure so i'll write it as not.

Intro/Verses

Guitar 1                                                                    5x
e|---6---6r-6-6-6-6-66-6--6r-6-6-6-6-66-6---6r--6-6-6-6-66-6-6r-6-6-6-6-66--||
B|---6h7-7r-7-7-7-7-77-6--6r-6-6-6-6-66-6h7-7r--7-7-7-7-76-6-6r-6-6-6-6-66-.||
G|---6---6r-6-6-6-6-66-6--6r-6-6-6-6-66-6h8-8r--8-8-8-8-86-6-6r-6-6-6-6-66--||
D|---------------------------------------------------------8-8r-8-8-8-8-88--||
A|-------------------------------------------------------------------------.||
E|--------------------------------------------------------------------------||
Guitar 2 (plays 2nd and 5th time through with guitar one)
    |let ring              |let ring              |let ring
e|-------9----------------------9----------------------9---------------------|
B|-----11-11-9-11-11-11-11----11-11-9-11-11-11-11---11--11-9-11-11-11-11-11--|
G|---11---------------------10---------------------9-------------------------|
D|---------------------------------------------------------------------------|
A|---------------------------------------------------------------------------|
E|---------------------------------------------------------------------------|
Guitar 2 (2nd part of solo)
e|---------------------------------------------------------------------------|
B|-11-11-11-11-11-11-9-7\----------------------------------------------------|
G|---------------------------------------------------------------------------|
D|---------------------------------------------------------------------------|
A|---------------------------------------------------------------------------|
E|---------------------------------------------------------------------------|


Chorus

Guitar 1
e|------6-------6-------6-------6-------6-------6---------6----6------------||
B|----7---7---6---7---6---6---6---6---7---7---7---7-----6---6----6---------.||
G|--6-------6-------6-------6-------8-------8---------6------6--------------||
D|--------------------------------------------------8-----------------------||
A|-------------------------------------------------------------------------.||
E|--------------------------------------------------------------------------||

Verse
Guitar 1                                                                    4x
e|---6---6r-6-6-6-6-66-6--6r-6-6-6-6-66-6---6r--6-6-6-6-66-6-6r-6-6-6-6-66--||
B|---6h7-7r-7-7-7-7-77-6--6r-6-6-6-6-66-6h7-7r--7-7-7-7-76-6-6r-6-6-6-6-66-.||
G|---6---6r-6-6-6-6-66-6--6r-6-6-6-6-66-6h8-8r--8-8-8-8-86-6-6r-6-6-6-6-66--||
D|---------------------------------------------------------8-8r-8-8-8-8-88--||
A|-------------------------------------------------------------------------.||
E|--------------------------------------------------------------------------||
Guitar 2 (plays 4th time through with guitar one)
    |let ring              |let ring              |let ring
e|-------9----------------------9----------------------9---------------------|
B|-----11-11-9-11-11-11-11----11-11-9-11-11-11-11---11--11-9-11-11-11-11-11--|
G|---11---------------------10---------------------9-------------------------|
D|---------------------------------------------------------------------------|
A|---------------------------------------------------------------------------|
E|---------------------------------------------------------------------------|
Guitar 2 (2nd part of solo)
e|---------------------------------------------------------------------------|
B|-11-11-11-11-11-11-9-7\----------------------------------------------------|
G|---------------------------------------------------------------------------|
D|---------------------------------------------------------------------------|
A|---------------------------------------------------------------------------|
E|---------------------------------------------------------------------------|

Chorus
[ Tab from: http://www.guitartabs.cc/tabs/m/modest_mouse/float_on_tab_ver_14.html ]
Guitar 1
e|------6-------6-------6-------6-------6-------6---------6----6------------||
B|----7---7---6---7---6---6---6---6---7---7---7---7-----6---6----6---------.||
G|--6-------6-------6-------6-------8-------8---------6------6--------------||
D|--------------------------------------------------8-----------------------||
A|-------------------------------------------------------------------------.||
E|--------------------------------------------------------------------------||

Verse
Guitar 1                                                                    2x
e|---6---6r-6-6-6-6-66-6--6r-6-6-6-6-66-6---6r--6-6-6-6-66-6-6r-6-6-6-6-66--||
B|---6h7-7r-7-7-7-7-77-6--6r-6-6-6-6-66-6h7-7r--7-7-7-7-76-6-6r-6-6-6-6-66-.||
G|---6---6r-6-6-6-6-66-6--6r-6-6-6-6-66-6h8-8r--8-8-8-8-86-6-6r-6-6-6-6-66--||
D|---------------------------------------------------------8-8r-8-8-8-8-88--||
A|-------------------------------------------------------------------------.||
E|--------------------------------------------------------------------------||
Guitar 2  (plays with guitar one full time)                                  
    |let ring              |let ring              |let ring                 2x
e|-------9----------------------9----------------------9--------------------||
B|-----11-11-9-11-11-11-11----11-11-9-11-11-11-11---11--11-9-11-11-11-11-11.||
G|---11---------------------10---------------------9------------------------||
D|--------------------------------------------------------------------------||
A|-------------------------------------------------------------------------.||
E|--------------------------------------------------------------------------||
Guitar 2 (2nd part of solo)
e|---------------------------------------------------------------------------|
B|-11-11-11-11-11-11-9-7\----------------------------------------------------|
G|---------------------------------------------------------------------------|
D|---------------------------------------------------------------------------|
A|---------------------------------------------------------------------------|
E|---------------------------------------------------------------------------|

Outro 
e|-(10 measure rest)-|
B|-(10 measure rest)-|
G|-(10 measure rest)-|
D|-(10 measure rest)-|
A|-(10 measure rest)-|
E|-(10 measure rest)-|

Guitar 1                                                                    2x
e|---6---6r-6-6-6-6-66-6--6r-6-6-6-6-66-6---6r--6-6-6-6-66-6-6r-6-6-6-6-66--||
B|---6h7-7r-7-7-7-7-77-6--6r-6-6-6-6-66-6h7-7r--7-7-7-7-76-6-6r-6-6-6-6-66-.||
G|---6---6r-6-6-6-6-66-6--6r-6-6-6-6-66-6h8-8r--8-8-8-8-86-6-6r-6-6-6-6-66--||
D|---------------------------------------------------------8-8r-8-8-8-8-88--||
A|-------------------------------------------------------------------------.||
E|--------------------------------------------------------------------------||

Guitar 2  (plays with guitar one full time)                                  
    |let ring              |let ring              |let ring                 2x
e|-------9----------------------9----------------------9--------------------||
B|-----11-11-9-11-11-11-11----11-11-9-11-11-11-11---11--11-9-11-11-11-11-11.||
G|---11---------------------10---------------------9------------------------||
D|--------------------------------------------------------------------------||
A|-------------------------------------------------------------------------.||
E|--------------------------------------------------------------------------||
Guitar 2 (2nd part of solo)
e|---------------------------------------------------------------------------|
B|-11-11-11-11-11-11-9-7\----------------------------------------------------|
G|---------------------------------------------------------------------------|
D|---------------------------------------------------------------------------|
A|---------------------------------------------------------------------------|
E|---------------------------------------------------------------------------|
Guitar 1
   |let ring-----------------------------------------
e|--6------------------------------------------------------------------------|
B|--7------------------------------------------------------------------------|
G|--6------------------------------------------------------------------------|
D|---------------------------------------------------------------------------|
A|---------------------------------------------------------------------------|
E|---------------------------------------------------------------------------|

And there you have it, hope you like it!

| \  slide down
| h  hammer-on

===============================================================================
Comments