Modest Mouse - Float On Chords & Tabs

 

Float On Chords & Tabs

Modest Mouse Chords & Tabs

Version: 12 Type: Tab 0 ratings
1 star 2 stars 3 stars 4 stars 5 stars
comments

Float On Tab

Float On tab by yizzim


Intro chords

E--6---6--6-6-6-6--6---6--6-6-6-6--6---6--6-6-6-6--6----|
B--6h7-7--7-7-7-7--7p6-6--6-6-6-6--6h7-7--7-7-7-7--7p6--|
G--6---6--6-6-6-6--6---6--6-6-6-6--6h8-8--8-8-8-8--8p6--|
D-------------------------------------------------------|
A-------------------------------------------------------|
E-------------------------------------------------------|

lead riff
[ Tab from: http://www.guitartabs.cc/tabs/m/modest_mouse/float_on_tab_ver_12.html ]
E-----------------------------------------------------------------------|
B-----11---14----11-----11-11-11-11-------11--14--11----11-11-11-11-----|
G-11----------------13---------------10--------------13-----------------|
D-----------------------------------------------------------------------|
A-----------------------------------------------------------------------|
E-----------------------------------------------------------------------|


E-----------------------------------------------------------------------|
B-----11---14----11-----11-11-11-11-------11-11-11-11-11----------------|
G-11----------------13---------------10---------------------13----11----|
D-----------------------------------------------------------------------|
A-----------------------------------------------------------------------|
E-----------------------------------------------------------------------|
Comments