Modest Mouse - Float On Chords & Tabs

 

Float On Chords & Tabs

Modest Mouse Chords & Tabs

Version: 1 Type: Bass Tab 0 ratings
1 star 2 stars 3 stars 4 stars 5 stars
comments

Float On Bass Tab

Artist: Modest Mouse
Song:   Float On
Album:  Good News For People Who Love Bad News


this is a very easy song to play.

standard tuning


verse
G----------------------------------------------------------
Dā€”4--4--4--4-6-3--3--3--3-1--------------------------------
A---------------------------2--2--2--2-4-1--1--1ā€”1---------
E--------------------------------------------------4-------

bridge
G----------------------------------------------------------
D-4--------4-6-3--------3-1--------------------------------
A---------------------------2--------2-4-1-------1---------
E--------------------------------------------------4-------
[ Tab from: http://www.guitartabs.cc/tabs/m/modest_mouse/float_on_btab.html ]
G----------------------------------------------------------
D-4--------4-6-3--------3-1------------------1-3-----------
A---------------------------2--------2-4-1-4---------------
E----------------------------------------------------------

verse2
G----------------------------------------------------------
D-3-4--4--4--4-6-3--3--3--3-1------------------------------
A----------------------------2--2--2--2-4-1--1--1ā€”1--------
E---------------------------------------------------4------


order of riffs...
rest until bass comes in (about 14 seconds)
verse  x 4
bridge x 1
verse  x 4
bridge x 1
verse  x 2
verse2 x 1
verse  x 3

send questions and feedback to:
chip_wood@attbi.com
Comments