Modest Mouse - Everywhere And His Nasty Parlor Tricks Chords & Tabs

 

Everywhere And His Nasty Parlor Tricks Chords & Tabs

Modest Mouse Chords & Tabs

Version: 1 Type: Tab 0 ratings
1 star 2 stars 3 stars 4 stars 5 stars
comments

Everywhere And His Nasty Parlor Tricks Tab

Tabbed by:CMM 
Email:colin_michael_muppet@hotmail.com

Willful Suspension of Disbelief
Night on the Sun
3 Inch Horses, Two Faced Monsters
You're the Good Things
The Air
So Much Beauty in Dirt
Here it Comes
I Came as a Rat (Long Walk Off a Short Dock)

--------------------Willful Suspension of Disbelief------------------------

Tuning: Standard (eBGDAE)

(Slide Guitar Intro)
e|----------------------------|
B|----------------------------|
G|----------------------------|
D|-/9---11\-9--8-9-\6---------|
A|---------------------6/9----|
E|----------------------------|

(Main Riff)
e|---4-----------------------4-----------------------|
B|-------5---4-------------------5---4---7---4h5-----|
G|---------------6-----------------------------------|
D|-6---6---6---6---6-5h6---6---6---6---6---6---------|
A|---------------------------------------------------|
E|---------------------------------------------------|

(Slide Guitar Fill)
e|---------------------|
B|---------------------|
G|---------------------|
D|-1/9--13\9--8/9\6----|
A|---------------------|
E|---------------------|

(Fill)
e|-------------------------------|
B|-----7----7p5h7p5--------------|
G|-6h8--------------8--6--8------|
D|---------------------------9---|
A|-------------------------------|
E|-------------------------------|

(Fill)
e|----------------------|
B|----------------------|
G|--6-6--4h6-/8-6p4-----|
D|----------------------|
A|----------------------|
E|----------------------|

(Outro Solo)
e|---------------------------------------------|
B|-------14~---14p12--14p12--------------------|
G|-13-15---------------------15--13--15--11----|
D|---------------------------------------------|
A|---------------------------------------------|
E|---------------------------------------------|


---------------------------Night on the Sun---------------------------------

Tuning:Open E (eBG#EG#E)

(Main riff)
e |----------------------------------|
B |----------------------------------|
G#|----------------------------------|
E |----------------------------------|
G#|-------2--0--5/6\5--3--2--3--0----|
E |-0--4-----------------------------|

(Main riff ending)
e |------------------------------|
B |------------------------------|
G#|------------------------------|
E |------------------------------|
G#|-5--7--8--7p5--5\3--3--3-3--0-|
E |------------------------------|

(Verse Harmonics)
e |-12+----7+--|
B |-12+----7+--|
G#|-12+----7+--|
E |-12+----7+--|
G#|-12+----7+--|
E |-12+----7+--|

(Outro pt.1)
e |----------------------------------------------------------------|
B |----------------------------------------------------------------|
G#|--3-------------5----3--------------5-5---7-7-7-7--7/8\7p5-5----|
E |----4--2--7--7----------4--2--7--7---------------------------7--|
G#|----------------------------------------------------------------|
E |----------------------------------------------------------------|

e |--------------------------------------------------------------------|
B |----------------------------------------------------/7--5---5-------|
G#|-7-7-7-7--8-7-5-------5-7-8-7-5-------5-7-8-7-5-----------7---7-----|
E |----------------7---7-----------7---7-----------7----------------7--|
G#|--------------------------------------------------------------------|
E |--------------------------------------------------------------------|

e |---------------------|
B |-7--5---5------------|
G#|------7---7----------|
E |------------7-7------|
G#|---------------------|
E |---------------------|

(Outro pt.Two)
e |------------------------------------------------------------------------|
B |------------------------------------------------------------------------|
G#|---------------------------------------------------7-5----7-5---7-5-----|
E |-4h7-7-7--4h7-7-7--7p4-4---4h7-7-7--4h7-7-7--7p4-4------7------7-----7--|
G#|------------------------------------------------------------------------|
E |------------------------------------------------------------------------|

e |-----------|
B |---7-------|
G#|-7---7-5---|
E |-----------|
G#|-----------|
E |-----------|

(Outro pt.Three)
e |-----------------------------------------|
B |-----7-------------------7---------------|
G#|-5h7---7-5-----------5h7---7-5-----------|
E |-----------7-6-4-6-------------7-6-4-6---|
G#|-----------------------------------------|
E |-----------------------------------------|

NOTE: This is not the whole Outro in its entirety. With the overlapping guitars
and continuous little variations, this is but a skeleton of it with the main
parts included. 


-------------------3 Inch Horses, Two Faces Monsters------------------------

Tuning: Standard (eBGDAE) & Open G (dBGDGD)

(Rhythm Guitar)
e|--x--|
B|--3--|
G|--0--|
D|--0--|
A|--2--|
E|--3--|

(Rhythm Guitar Fill)
e|-----------|
B|-----------|
G|-----------|
D|-----------|
A|-0h2-2p0---|
E|---------3-|

(Common Fill)
d|------------------|
B|------------------|
G|-3b4--3b4--3b4--0-|
D|------------------|
G|------------------|
D|------------------|

(Common Fill)
d|------------|
B|------------|
G|------------|
D|-0--/3--0---|
G|-0--/3--0---|
D|------------|

(Common Fill)
d|------------|
B|------------|
G|-/12-12-12\-|
D|-/12-12-12\-|
G|------------|
D|------------|

(Slide Guitar Fill)
d|-----------------------|
B|-----------------------|
G|-----------3/4---------|
D|-0--/3--0------5-3-5---|
G|-0--/3--0--------------|
D|-----------------------|

(Slide Fill)
d|---------------------|
B|---------------------|
G|-3p0---3-------------|
D|-----3----0--/3--0---|
G|----------0--/3--0---|
D|---------------------|

(Outro Fill)
d|--------------------------------------------------------------------|
B|--------------------------------------------------------------------|
G|-4p2-4p2-4p2-5p4-7p4-5p4-7p4-7p4-9p7-9p7-9p7-11p9-12p9-12p9-/12-12--|
D|--------------------------------------------------------------------|
G|--------------------------------------------------------------------|
D|--------------------------------------------------------------------|
NOTE: Greatly varried on.

(Outro Fill)
d|--9-7-------|
B|------8-----|
G|------------|
D|------------|
G|------------|
D|------------|

(Outro Slide 
d|-------------|
B|--------4----|
G|-3/4--4------|
D|-------------|
G|-------------|
D|-------------|


------------------------You're the Good Things------------------------------

Tuning: Standard (eBGDAE)

(Main Riff One)
e|---------------------------------------------|
B|---------------------------------------------|
G|--------------------6--6-x-x-6--6-x-x-6------|
D|-4------------------6--6-x-x-6--6-x-x-6------|
A|---6-4--/9---9-\6---4--4-x-x-4--4-x-x-4------|
E|---------------------------------------------|

(Main Riff Two)
e|----------------------------------------|
B|----------------------------------------|
G|-------------------6--6-x-x-6--6-x-x-6--|
D|-4-------4---------6--6-x-x-6--6-x-x-6--|
A|---6-4-6---6-4-6---4--4-x-x-4--4-x-x-4--|
E|----------------------------------------|

(Transition Chord)
e|-----|
B|-----|
G|-8---|
D|-8---|
A|-6---|
E|-----|

(Chorus Chord Progression)
e|-------------|
B|-------------|
G|-6--9--6--4--|
D|-6--9--6--4--|
A|-4--7--4--2--|
E|-------------|
[ Tab from: http://www.guitartabs.cc/tabs/m/modest_mouse/everywhere_and_his_nasty_parlor_tricks_tab.html ]
(Outro Riff One)
e|----------------------------------------------|
B|----------------------------------------7-----|
G|-4--4-4--4-4--4--4--4--4--/8-8-6-8--6h8---8---|
D|----------------------------------------------|
A|----------------------------------------------|
E|----------------------------------------------|

(Outro Riff Two)
e|----------------------------------------------------|
B|----------------------------------------------------|
G|-4--4-4--4-4--4--4--4--4-1h3p1---1------------------|
D|-------------------------------4----4p2----2-4---1--|
A|-----------------------------------------------2----|
E|----------------------------------------------------|

(Outro Riff Three)
e|----------------------------------------------|
B|----------------------------------------------|
G|----------------------------------------------|
D|-8-8-6-6--------------8-8-6-6-----------------|
A|---------9-6-4-6-4-6----------9-6-4-6-/9-9----|
E|----------------------------------------------|

(Ending Fill)
e|-/11-0-/11-0-/11-0--|
B|--------------------|
G|--------------------|
D|--------------------|
A|--------------------|
E|--------------------|


--------------------------------The Air-------------------------------------

Tuning: Standard (eBGDAE)

(Intro Riff)
e|-------------------|
B|-------------------|
G|-------------------|
D|-------------------|
A|-----2-5--3-2---3--|
E|-0-3----------5----|

(Guitar fill)
e|------------|
B|------------|
G|------------|
D|-----5~-----|
A|--7------7--|
E|------------|

(Overlapping Intro Riff)
e|--------------------|
B|--------------------|
G|--------------------|
D|--------------------|
A|--------2--/5-2-----|
E|-0-3--5---------5-3-|

(Fill)
e|-------------------------|
B|-------------------------|
G|-------7--7p5h7p5--4~----|
D|-7h9---------------------|
A|-------------------------|
E|-------------------------|


---------------------------So Much Beauty in Dirt---------------------------

Tuning: Standard (eBGDAE)

(Main Riff)
e|-----------------------------------------------|
B|-----------------------------------------------|
G|-----------------------------------------------|
D|-----------------------------------------------|
A|-/12-9-9----9--/12-9-9----9--/12-9-9----9------|
E|---------12------------12------------12---7-5--|

(Fill)
e|-----------------------------------|
B|---3----2h3-3--------3---5-3---3---|
G|-2---2--------2----2---2-----2-----|
D|-----------------------------------|
A|-----------------------------------|
E|-----------------------------------|


------------------------------Here it Comes---------------------------------

Tuning: Standard (eBGDAE)

(Main Riff pt.One)
e|-----------------7--5-----------------------------------|
B|-5h7----------------------5h7--------7------------------|
G|-----4-----7-------------------4------------------------|
D|-0---0--0--0--0--0--0--0--0----0--0--0--0--0--0--0--0---|
A|--------------------------------------------------------|
E|--------------------------------------------------------|

(Main Riff pt.Two)
e|-----------------7--5-----------------------------------|
B|-5h7----------------------5h7---------------------------|
G|-----4-----7-------------------4-----7------------------|
D|-0---0--0--0--0--0--0--0--0----0--0--0--0--0--0--0--0---|
A|--------------------------------------------------------|
E|--------------------------------------------------------|

(Verse)
e|-0--0-0---2--2-2-----------------0--0-0---2--2-2--x------|
B|-3--3-3---3--3-3---0--0-0-0------3--3-3---3--3-3--3------|
G|-2--2-2---2--2-2---2--2-2-2------2--2-2---2--2-2--2------|
D|-0--0-0---0--0-0---0--0-0-0------0--0-0---0--0-0--0------|
A|---------------------------------------------------------|
E|---------------------------------------------------------|


--------------I Came as a Rat (Long Walk Off a Short Dock)------------------

Tuning: Standard (eBGDAE)

(1st Guitar Intro)
e|-------------------------------------------------------------------------|
B|-------------------------------------------------------------------------|
G|--------------5-----------------------------------5----------------------|
D|-----7------5---5------5--------3--------7------5---5------5--------3----|
A|---7---7--3----------5---5----3---3----7---7--3----------5---5----3---3--|
E|-5-----------------3--------1--------5-----------------3--------1--------|
  Pm...........   Pm...............................   Pm...................

(2nd Guitar Intro)
e|-------------------------------------------------------------------------|
B|-------------------------------------------------------------------------|
G|-7~---------------------------------7~-----------------------------------|
D|-x----------------------------------x------------------------------------|
A|-5~---------------------------------5~-----------------------------------|
E|-------------------------------------------------------------------------|

e|-------------------------------------------------------------------------|
B|-------------------------------------------------------------------------|
G|-7~------9~--------12~--9~-----7~----------------------------------------|
D|-x-------x----------x---x------x-----------------------------------------|
A|-5~------7~--------10~--7~-----5~----------------------------------------|
E|-------------------------------------------------------------------------|

(Verse) (played 4 times)
e|------------------------------------------------------|
B|------------------------------------------------------|
G|--------------5-5-x-x-x-x-----------------------------|
D|-7-7-x-x-x-x--5-5-x-x-x-x--5-5-x-x-x-x--3-3-x-x-x-x---|
A|-7-7-x-x-x-x--3-3-x-x-x-x--5-5-x-x-x-x--3-3-x-x-x-x---|
E|-5-5-x-x-x-x---------------3-3-x-x-x-x--1-1-x-x-x-x---|
   
(Chorus)
e|------------------------------------------------------------|
B|-5-6-5-6----------------------------------------------------|
G|---------7--5\4--4-5-4-5------------------------------------|
D|-------------------------7--5\2-2----5----2-2-5-2-5-2-0-2---|
A|------------------------------------------------------------|
E|------------------------------------------------------------|

(2nd Guitar) (comes in second time through at the 5\2 slide)
e|---------------------3-------|
B|-5-6-5-6---------------------|
G|---------7--5\4--4-5---------|
D|-----------------------------|
A|-----------------------------|
E|-----------------------------|

(1st Guitar Jam) 
e|--------------------------------|
B|--------------------------------|
G|-9--9-9-7-9--9--9--9-10-9-10-9--|
D|-x--x-x-x-x--x--x--x--x-x--x-x--|
A|-7--7-7-5-7--7--7--7--8-7--8-7--|
E|--------------------------------|
NOTE: Just a general idea of what is played. It is varried throughout the Jam.

(2nd Guitar Jam)
e|-----------------------------|
B|---2-3-----------------------|
G|-4-----2---------------------|
D|---------4-0-2--2-5-2--------|
A|----------------------2~-----|
E|-----------------------------|

(3rd Guitar Jam)
e|-------------------------------------------------------------------------|
B|-------------------------------------------------------------------------|
G|-------------------------------------------------------------------------|
D|-------------------------------------------------------------------------|
A|--------------------7-7-7-7--7----7----------------------7-7-7-7--7-10-7-|
E|-7-7-7---10-10-10--------------10-----7-7-7---10-10-10-------------------|
Comments