Modest Mouse - Dramamine Chords & Tabs

 

Dramamine Chords & Tabs

Modest Mouse Chords & Tabs

Version: 4 Type: Tab 0 ratings
1 star 2 stars 3 stars 4 stars 5 stars
comments

Dramamine Tab

-------------------------------------------------------------------------------
            Dramaine - Modest Mouse
-------------------------------------------------------------------------------
Tabbed by:I)eficit
Email:LegacyOfMike@hotmail.com

Tuning:Ragular Guitar Tuning

Essential begining Intro:Gitr1
e|-------------------------------------------------------------------------|
B|-------------------------------------------------------------------------|
G|-------------------------------------------------------------------------|
D|-----------x5----------------x4-----------------x2-----------------x2----|
A|-----x7--------x7----x5---------x5----x3----------x3-----------------x5--|
E|----------------------------------------------------------------x3-------|
Repeat that 9 times then Gitr2 Come in

Then comes the other Intro whitch makes Dramamine, Dramamine: Gitr2
e|-------------------------------------------------------------------------|
B|-------------------------------------------------------------------------|
G|------------------------12-----------------------------------------------|
D|----14---12---14----------14---12----------------------------------------|
A|--------------------------------------------14---12---10---12---14---10--|
E|-------------------------------------------------------------------------|

e|--------------------------------------------------------------------------------------|
B|--------------------------------------------------------------------------------------|
G|------------------------12------------------------------------------------------------|
D|----14---12---14-----------14----12----14----12-----------12----10--------------------|
A|-------------------------------------------------------------10-------------------10--|
E|--------------------------------------------------------------------------------------|
[ Tab from: http://www.guitartabs.cc/tabs/m/modest_mouse/dramamine_tab_ver_4.html ]
e|-------------------------------------------------------------------------|
B|-------------------------------------------------------------------------|
G|------------------------12-----------------------------------------------|
D|----14---12---14----------14---12----------------------------------------|
A|--------------------------------------------14---12---10---12---14---10--|
E|-------------------------------------------------------------------------|

e|--------------------------------------------------------------------------------------|
B|--------------------------------------------------------------------------------------|
G|------------------------12------------------------------------------------------------|
D|----14---12---14-----------14----12----14----12-----------12----10--------------------|
A|-------------------------------------------------------------10-------------------10--|
E|--------------------------------------------------------------------------------------|

e|--------------------------------------------|
B|--------------------------------------------|
G|--------------------------------------------|
D|--------------------------------------------|
A|----14----12------------12----10----p14-10--|
E|-------------------12-----------------------|
Then it gose into real simple power chords
Verse
e|----------------------|
B|----------------------|
G|-----9------7------9--|
D|-----9------7------9--|
A|-----7------5------7--|
E|-----x------x------x--|
Repeat that 9 times and then back to Gitr2 Intro
Verse
e|----------------------|
B|----------------------|
G|-----9------7------9--|
D|-----9------7------9--|
A|-----7------5------7--|
E|-----x------x------x--|

e|------------------------------------------------------------|
B|------------------------------------------------------------|
G|-----9-999---7-777---12-121212-12-121212-12-121212----------|
D|-----9-999---7-777---12-121212-12-121212-12-121212----------|
A|-----7-777---5-555---10-101010-10-101010-10-101010----------|
E|-----x-xxx---x-xxx----x---x- x-x---x---x--x-x---x---x--x-x--|

e|---------------------------------------------------------------------------------------|
B|-----14---12---------------------------------------------------------------------------|
G|------------------14---13---14---13----------------------------------------------------|
D|--------------------------------------------14---14---12---11---p14/12--11--p12/11-----|
A|-----------------------------------------------------------------------------------12--|
E|---------------------------------------------------------------------------------------|
Comments