Modest Mouse - Dramamine Chords & Tabs

 

Dramamine Chords & Tabs

Modest Mouse Chords & Tabs

Version: 3 Type: Tab 0 ratings
1 star 2 stars 3 stars 4 stars 5 stars
comments

Dramamine Tab

Tabbed by: EL Deuscho Magnifico

RIFF 1
e:-------------------------------------------/ I guess you could call this 
b:-------------------------------------------/ baseline.
g:-------0-----0-----0-----0-----------------/
d:-----2---2-0---0-----0-----0---------------/
a:-----------------3-------------------------/ Repeat untill lead guitar
e:-----------------------3-------------------/ enters.

RIFF 2
e:-------------------------------------------/
b:-------------------------------------------/ This is the part where the
g:-------------------------------------------/ vibrato guitar part enters
d:-------------------------------------------/ .I didnt feel it neccessary
a:-------------------------------------------/ to put it in here. :)
e:-------------------------------------------/
RIFF 3
e:---0---0-2/3-0-------------------0---0-2/3-0---0-------------- repeat once
b:-----3---------3-0-------0---------3---------3---3---3-1------
g:-------------------2-0-2---0-----------------------0-----0----
d:--------------------------------------------------------------
a:--------------------------------------------------------------
e:--------------------------------------------------------------

continuation of RIFF 3
e:----------------------/
b:-0--------------------/
g:---2---2-0-2/4-0------/
d:-----0----------------/
a:----------------------/
e:----------------------/

RIFF 4
e:----0---0-2/3-0-----------------0---0-2/3-0---0------------
b:------3---------3-0-------0-------3---------3---3---3-1----
g:--------------------2-0-2---0---------------------0-----0--
d:-----------------------------------------------------------
a:-----------------------------------------------------------
e:-----------------------------------------------------------
[ Tab from: http://www.guitartabs.cc/tabs/m/modest_mouse/dramamine_tab_ver_3.html ]
cont. RIFF 4
e:-----0---0-2/3-0-----------------0---0-2/3-0---3v--/
b:-------3---------3-0-------0-------3---------3-----/
g:---------------------2-0-2---0---------------------/
d:---------------------------------------------------/
a:---------------------------------------------------/
e:---------------------------------------------------/

RIFF 5         z x z
e:----0-0-0----0-0-0----------/ For sake of space we'll call the first Z
b:----0-0-0----0-0-0----------/ and the second chord x. Because i have no
g:----0-0-0----0-0-0----------/ idea what there called. 
d:----2-4-2----2-4-2----------/
a:------5--------5------------/
e:----------------------------/

(z)      (x)        (z)
Traveling swallowing dramamine.
(z)           (x)            (z)
Feeling spaced, breathing out, listerine.
  (z)          (x)          (z)
Id said that id said that id tell ya.
        (z)              (x)     (z)
And that you'd killed the better part of me.
   (z)           (x)         (z)
If you could just milk it for everything.
   (z)          (x)          (z)
Ive said what id said and you know what i mean.
   (z)           (x)      (z)
But i still can't focus on anything.
   (z)        (x)             (z)
We kiss on the mouth but still cough down our sleeves.



****** Repeat RIFFS 1,2,3, and 4 ******

(z)       (x)       (z)
Traveling swallowing dramamine.
(z)           (x)          (z)  
Look at your face like your killed in a dream.
    (z)            (x)          (z)
And you think you've figured out everything.
(z)       (x)     (z)                       (z)              (x)            
I think i know my geography pretty damn well/you say what you need so youll 
(z)
get more.
   (z)           (x)         (z)
If you could just milk it for everything.
   (z)           (x)          (z)
Ive said what ive said and you know what i mean.
   (z)          (x)       (z)
But i cant still focus on anything.
Comments