Modest Mouse - Dramamine Chords & Tabs

 

Dramamine Chords & Tabs

Modest Mouse Chords & Tabs

Version: 1 Type: Bass Tab 0 ratings
1 star 2 stars 3 stars 4 stars 5 stars
comments

Dramamine Bass Tab

   
-------------------------------------------------------------------------------
                      Dramamine by Modest Mouse
-------------------------------------------------------------------------------


Tabbed By : Brandon
e-mail: skate_enjoi_immigrant@hotmail.com


Tuning:
[ Tab from: http://www.guitartabs.cc/tabs/m/modest_mouse/dramamine_btab.html ]
G|---12-------11-------9------11---------|
D|14----14--12---12-10--10-------12------|
A|-------------------------10------------|
E|---------------------------------------|



G|---12-------11-------9---9/12-12-12---|
D|14----14--12---12-10---10-------------|
A|--------------------------------------|
E|--------------------------------------|

that's just about it, have fun with this song.


| /  slide up
| \  slide down
| h  hammer-on
| p  pull-off
| ~  vibrato
| +  harmonic
| x  Mute note

===============================================================================
Comments