Modest Mouse - Doin The Cockroach Chords & Tabs

 

Doin The Cockroach Chords & Tabs

Modest Mouse Chords & Tabs

Version: 1 Type: Tab 0 ratings
1 star 2 stars 3 stars 4 stars 5 stars
comments

Doin The Cockroach Tab

Intro & Verse
E---------------------------------------------
B----3---2------------------------------------
G--4---4---4-2---2---2-----------------4-4-4-4
D--------------4---4---4-2---2---2-----4-4-4-4
A--------------------------4---4---4-2-2-2-2-2
E---------------------------------------------
[ Tab from: http://www.guitartabs.cc/tabs/m/modest_mouse/doin_the_cockroach_tab.html ]
"Doin' the Cockroach..."
E---------------------------------------------
B-----3----3-----3-----3---------------------
G---------------------------------------------
D-------------------------7-7-7-7-5-5-5-5-----
A-2-2---2-2---2-2---2-2---7-7-7-7-5-5-5-5-----
E-------------------------5-5-5-5-3-3-3-3-----

The first were a little off, still working on the end transition
Comments