Modest Mouse - Custom Concern Chords & Tabs

 

Custom Concern Chords & Tabs

Modest Mouse Chords & Tabs

Version: 3 Type: Tab 0 ratings
1 star 2 stars 3 stars 4 stars 5 stars
comments

Custom Concern Tab

Tabbed by:CMM
Email: The usual

(Intro/Verse)

(Pt. One)
e|----------------------------------------------------------|
B|----------------------------------------------------------|
G|-------0------------------0--------0------------------0---|
D|----------0h2--------0h2--------------0h2--------0h2------|
A|-3--3----------3--3----------3--3----------3--3-----------|
E|----------------------------------------------------------|

(Pt.One Alternated Riff)
e|----------------------------------------------------------|
B|----------------------------------------------------------|
G|-------0------------------0--------0------------------0---|
D|----------2----------2----------------2----------2--------|
A|-3--3----------3--3----------3--3----------3--3-----------|
E|----------------------------------------------------------|

(Pt.Two)
e|----------------------------------------------------------|
B|----------------------------------------------------------|
G|----------------------------------------------------------|
D|----------------------------------------------------------|
A|-0--0--3--3-3--0--0--3--3-3--0--0--3--3-3--0--0--3--3-3---|
E|----------------------------------------------------------|
[ Tab from: http://www.guitartabs.cc/tabs/m/modest_mouse/custom_concern_tab_ver_3.html ]
(Pt.Three)
e|-------------------------------------------------------------------|
B|-------------------------------------------------------------------|
G|-------------------------------------------------------------------|
D|-------------------------------------------------------------------|
A|---2h3p2---2h3p2---2h3p2---2h3p2---2h3p2---2h3p2---2h3p2---2h3p2---|
E|-3-------3-------3-------3-------3-------3-------3-------3---------|

(Pt.Four)
e|-------------------------------------------------------|
B|-------------------------------------------------------|
G|-------------------------------------------------------|
D|---------------------------------------------0---------|
A|------0h3--3--------0h3--3--------0h3--3--3-----3--2---|
E|-1--1---------1--1----------1--1-----------------------|

(Slide Guitar Fill One)
e|------|
B|------|
G|------|
D|-/7---|
A|------|
E|------|

(Slide Guitar Fill Two)
e|--------|
B|--------|
G|--------|
D|--------|
A|--------|
E|-/8--8\-|

(Slide Guitar Fill Three)
e|--------|
B|--------|
G|-----12-|
D|-/12----|
A|--------|
E|--------|

(Outro pt.1)
e|-------------------------------------------------------------------------|
B|-------------------------------------------------------------------------|
G|---------5/7-5--4-5-4----------------------------------------------------|
D|---2-3/5--------------5-3--2-3-2--------------5/7-5--4-5-4---------------|
A|-3-------------------------------3------2-3/5--------------5-3--2-3-2----|
E|--------------------------------------3-------------------------------3--|

(Outro pt.2)
e|----------------------------------------------------------------|
B|----------------------------------------------------------------|
G|----------------------------------------------------------------|
D|---------------------2---3---5----------------------------------|
A|----------2---3--5----------------------0---2--3---2---0--------|
E|--3---5--------------------------1---3--------------------3--1--|
Comments