Modest Mouse - Cowboy Dan Chords & Tabs

 

Cowboy Dan Chords & Tabs

Modest Mouse Chords & Tabs

Version: 1 Type: Tab 0 ratings
1 star 2 stars 3 stars 4 stars 5 stars
comments

Cowboy Dan Tab

   
COWBOY DAN:  from Stevie P
Keep it schwolay!!!


Beginning of song..."Cowboy Dan's a..."
-------------------------------------
-------------------------------------
-------------------------------------
-----------11--12 ----11--12---------
--------9----------12--------12--11--
-------------------------------------

the other guitar is bending these harmonics with the whammy bar...if you
want to figure the order out...feel free.
-------------------------------------
-------------------------------------
-----7h------------------------------
-----7h------------------------------
-----7h------------------------------
-------------------------------------

"Can't do it, not even if sober..." Repeat this...
----x---x---x---x---x---x-------x-------x------x---x-------------------
----x---x---x---x---x---x-------x-------x------x---x-------------------
----11--11--11--x---x---x-------x-------x------x---x-------------------
----x---x---x---11--11--11/12---11/12---11/9---9---9-------------------
----9---9---9---x---x---x-------x-------x------x---x-------------------
----x---x---x---9---9---9/10----9/10----9/7----7---7-------------------

Back to this stuff...
-------------------------------------
-------------------------------------
-------------------------------------
-----------11--12 ----11--12---------
--------9----------12--------12--11--
-------------------------------------

until...						
------------------------------------ {-------------------------------------------
------------------------------------ {-------------------------------------------
------------------------------------ {-------------------------------------------
-----11--12-----11--12-------------- {-11----11----11----------------------------
--9----------12--------12--11--9--12 {----12----12----12-----11----11----11------
------------------------------------ {-------------------9/12---12----12----12---
[ Tab from: http://www.guitartabs.cc/tabs/m/modest_mouse/cowboy_dan_tab.html ]
-----------------------------------------------------------}
-----------------------------------------------------------} repeat this through the
-----------------------------------------------------------} "Standing in the tall..."
--11--------------------11---------------------------------}
-----12--9----9----9-------12--9---------------------------}
-----------10---10---10----------10--9--10--7--9--10--12---}

"Everytime you're..."
----------------------------------------------------------
----------------------------------------------------------
----------------------------------------------------------
--11--12--14--14--12--11----------------------------------
--------------------------14--12--12--14--16--14--12--12--
----------------------------------------------------------

And do almost everything over again...



*******************************************



CoWBOY DAN:  from E. Satnik
(repeat this riff starting on any f# note.)

------------------------------------
------------------------------------
------------------------------------
-----------11--12 ----11--12--------
--------9----------12--------12--11-
------------------------------------

the middle part goes:  F#    /C#     /C# D C# D /C# B

"i know you need oxygen to breathe..."

E------------------------------  -----------------------------
B------------------------------  -----------------------------
G------------------------------  -----------------------------
D--11----11----11----11/12/14--  -----------------------------
A----12----12----12------------  --11----11----11----11/12/14-
E------------------------------  ----12----12----12-----------
  i know  we need                oxygen to breathe


E------------------------------  -----------------------------
B------------------------------  -----------------------------
G------------------------------  -----------------------------
D------------------------------  -----------------------------
A---9----9-----9----9/10/12----  --9--------------------------
E----10-----10---10------------  ----10-9-10-7-9-10-12--------
  oxygen to breathe....
Comments