Modest Mouse - Convenient Parking Chords & Tabs

 

Convenient Parking Chords & Tabs

Modest Mouse Chords & Tabs

Version: 1 Type: Tab 0 ratings
1 star 2 stars 3 stars 4 stars 5 stars
comments

Convenient Parking Tab

   
Modest Mouse - Convenient Parking
Album:The lonesome crowded west
Done by Pat Kelly

This tab is for sure 100% correct. Rather easy, but definately catchy. ;)

Guitar 1
Part 1

Soon the chain reaction started in the parking lot....
e-------------------------------------|
B-------------------------------------|
G-------------------------------------|
D-------------------------------------|
A-----------6666-888-78787------------|
E----8888-----------------------------|
Guitar 2 comes in with a bend on the D string 7th Fret in the beginning of the song. 
part one as many times as needed until the chorus comes up.

Chorus

Convenient eh yeah yeah yeah....was way back when
[ Tab from: http://www.guitartabs.cc/tabs/m/modest_mouse/convenient_parking_tab.html ]
   C#m      E        A
e--------------------------------------|
B---4----------------------------------|
G---4-------7--------5-----------------|
D---6-------9--------6-----------------|
G---6-------9--------7-----------------|
A---4-------9--------7-----------------|
E--------------------5-----------------|
Repeat however many times needed


they finish up the song with one Guitar one playing this
e--------------------------------------------------|
B--------------------------------------------------|
G--------------------------------------------------|
D-------7------ 7------7-9(Heavy Bend)-------------|
A----79------79-----79-----------------------------|
E--------------------------------------------------|

Thats it. Hope you enjoyed it. Great song, amazing band.
Comments