Modest Mouse - Bury Me With It Chords & Tabs

 

Bury Me With It Chords & Tabs

Modest Mouse Chords & Tabs

Version: 1 Type: Tab 2 ratings
1 star 2 stars 3 stars 4 stars 5 stars
comments

Bury Me With It Tab

Author/Artist: Modest Mouse
Title: Bury Me With It
Album: Good News For People Who Love Bad News
Email: eskimobob31337@hotmail.com


This may not be completely accurate
but it sounds pretty close to me.


Standard Tuning


Intro/Chorus/Outro

e|----------------------------------------
B|----------------------------------------
G|---11--11----12--12----14--14---14--14--
D|---11--11----12--12----14--14---14--14--
A|---9---9-----10--10----12--12---12--12--
E|----------------------------------------


Break and before Outro
[ Tab from: http://www.guitartabs.cc/tabs/m/modest_mouse/bury_me_with_it_tab.html ]
Play a few times.
Put a little slide frm the 4-4-2 back to 11-11-9

e|-------------------------
B|-------------------------
G|---11--x--9--x--7--x--4--
D|---11--x--9--x--7--x--4--  
A|---9---x--7--x--5--x--2--
E|-------------------------


Play that a few times then 

Aprox. 8 times each

e|---------
B|---------
G|--7---6--
D|--7---6-- 
A|--5---4--
E|---------


Then back to the Break thing.

Sorry if this doesn't explain it very well
but if you're a Modest Mouse fan and have
heard the song a few times, you can pick it
up fairly easily.


-Landon Aaron
eskimobob31337@hotmail.com
Comments