Modest Mouse - Bukowski Chords & Tabs

 

Bukowski Chords & Tabs

Modest Mouse Chords & Tabs

Version: 1 Type: Bass Tab 0 ratings
1 star 2 stars 3 stars 4 stars 5 stars
comments

Bukowski Bass Tab

Intro
G--------------------0--0-1--0-------|
D-------------------------------1--0-|
A--1/3-3--3\1-1--1-------------------|
E------------------4-----------------|


VERSE
G-----------------------0-1-0--|
D------------------1--3--------|
A--1/3-3--3\1-1--1-------------|
E------------------------------|
[ Tab from: http://www.guitartabs.cc/tabs/m/modest_mouse/bukowski_btab.html ]
G--------------------0--0-1--0-------|
D-------------------------------1--0-|
A--1/3-3--3\1-1--1-------------------|
E------------------4-----------------|

BRIDGE
G--------------|
D--1--0-----0--|
A--------3-----|
E--------------|

G-------------------1-1-0-1-0------|
D----0-1-0---0-1-0------------1-0--|
A--3-------1-----------------------|
E----------------------------------|

G-------------------1--3--5--8--|
D----0-1-0---0-1-0--------------|
A--3-------1--------------------|
E-------------------------------|
Comments