Modest Mouse - Broke Chords & Tabs

 

Broke Chords & Tabs

Modest Mouse Chords & Tabs

Version: 1 Type: Bass Tab 0 ratings
1 star 2 stars 3 stars 4 stars 5 stars
comments

Broke Bass Tab

----------------------------------------------------------------------------
			     BROKE - MODEST MOUSE                          
-----------------------------------------------------------------------------
Tabbed By : jared j
e-mail: kbryant096@netscape
well i have always wanted to know this songs bass even though i dont play bass
but this is what i think a really good interpretation of this song. please email
me if u have any questions or comments.
Tuning: standard

G|-------------------------------------------------------------------------|
D|-------------------------------------------------------------------------|
A|-------------------------------------------------------------------------|
E|-0--11---11---7-------------------7-------11----11----7------------------|
throughout the verses he changes it a little to..
G|-------------------------------------------------------------------------|
D|-------------------------------------------------------------------------|
A|-------------------------------------------------------------------------|
E|--0---11----11----7--------------7-------11-----11----7-----9---9--------|
when he starts singing ..and round and round and round..
G|-------------------------------------------------------------------------|
D|-------------------------------------------------------------------------|
A|----------------------------------------------------9--------------------|
E|---0----11----11----7-----7------9-------11------7-----------------------|
[ Tab from: http://www.guitartabs.cc/tabs/m/modest_mouse/broke_btab.html ]
G|-------------------------------------------------------------------------|
D|-------------------------------------------------------------------------|
A|----------------------------------------------------------9--------------|
E|----7------11-------11----7------7-------9-----11-----7------------------|
"uh oh uh oh uh oh uh oh no"
G|-------------------------------------------------------------------------|
D|-------------------------------------------------------------------------|
A|-------------------------------------------------------------------------|
E|--0---11---11---7----7---9---11---7--11----------------------------------|

G|-------------------------------------------------------------------------|
D|-------------------------------------------------------------------------|
A|-------------------------------------------------------------------------|
E|--7----11----11----7--7---9----11----7---11------------------------------|
"your living on fancy wine.."
G|-------------------------------------------------------------------------|
D|-------------------------------------------------------------------------|
A|-------------------------------------------------------------------------|
E|--0----0-----0----11----11-----11-----7---2x-----------------------------|

G|-------------------------------------------------------------------------|
D|-------------------------------------------------------------------------|
A|-------------------------------------------------------------------------|
E|--7---7-----7-----11---11----11----7-----2x------------------------------|

well thats it. please email me if there is any problems.
Comments